  0
SECTION
  2
HEADER
  9
$ACADVER
  1
AC1012
  9
$DWGCODEPAGE
  3
ansi_1252
  9
$INSBASE
 10
0.0
 20
0.0
 30
0.0
  9
$EXTMIN
 10
74.616379
 20
58.330001
 30
0.0
  9
$EXTMAX
 10
103.317967
 20
71.47035
 30
0.0
  9
$LIMMIN
 10
0.0
 20
0.0
  9
$LIMMAX
 10
0.0
 20
0.0
  9
$ORTHOMODE
 70
     0
  9
$REGENMODE
 70
     1
  9
$FILLMODE
 70
     1
  9
$QTEXTMODE
 70
     0
  9
$MIRRTEXT
 70
     1
  9
$DRAGMODE
 70
     2
  9
$LTSCALE
 40
1.0
  9
$OSMODE
 70
     0
  9
$ATTMODE
 70
     1
  9
$TEXTSIZE
 40
0.2
  9
$TRACEWID
 40
0.05
  9
$TEXTSTYLE
  7
STANDARD
  9
$CLAYER
  8
0
  9
$CELTYPE
  6
CONTINUOUS
  9
$CECOLOR
 62
   256
  9
$CELTSCALE
 40
1.0
  9
$DELOBJ
 70
     1
  9
$DISPSILH
 70
     0
  9
$DIMSCALE
 40
1.0
  9
$DIMASZ
 40
0.18
  9
$DIMEXO
 40
0.0625
  9
$DIMDLI
 40
0.38
  9
$DIMRND
 40
0.0
  9
$DIMDLE
 40
0.0
  9
$DIMEXE
 40
0.18
  9
$DIMTP
 40
0.0
  9
$DIMTM
 40
0.0
  9
$DIMTXT
 40
0.18
  9
$DIMCEN
 40
0.09
  9
$DIMTSZ
 40
0.0
  9
$DIMTOL
 70
     0
  9
$DIMLIM
 70
     0
  9
$DIMTIH
 70
     1
  9
$DIMTOH
 70
     1
  9
$DIMSE1
 70
     0
  9
$DIMSE2
 70
     0
  9
$DIMTAD
 70
     0
  9
$DIMZIN
 70
     0
  9
$DIMBLK
  1

  9
$DIMASO
 70
     1
  9
$DIMSHO
 70
     1
  9
$DIMPOST
  1

  9
$DIMAPOST
  1

  9
$DIMALT
 70
     0
  9
$DIMALTD
 70
     2
  9
$DIMALTF
 40
25.4
  9
$DIMLFAC
 40
1.0
  9
$DIMTOFL
 70
     0
  9
$DIMTVP
 40
0.0
  9
$DIMTIX
 70
     0
  9
$DIMSOXD
 70
     0
  9
$DIMSAH
 70
     0
  9
$DIMBLK1
  1

  9
$DIMBLK2
  1

  9
$DIMSTYLE
  2
STANDARD
  9
$DIMCLRD
 70
     0
  9
$DIMCLRE
 70
     0
  9
$DIMCLRT
 70
     0
  9
$DIMTFAC
 40
1.0
  9
$DIMGAP
 40
0.09
  9
$DIMJUST
 70
     0
  9
$DIMSD1
 70
     0
  9
$DIMSD2
 70
     0
  9
$DIMTOLJ
 70
     1
  9
$DIMTZIN
 70
     0
  9
$DIMALTZ
 70
     0
  9
$DIMALTTZ
 70
     0
  9
$DIMFIT
 70
     3
  9
$DIMUPT
 70
     0
  9
$DIMUNIT
 70
     2
  9
$DIMDEC
 70
     4
  9
$DIMTDEC
 70
     4
  9
$DIMALTU
 70
     2
  9
$DIMALTTD
 70
     2
  9
$DIMTXSTY
  7
STANDARD
  9
$DIMAUNIT
 70
     0
  9
$LUNITS
 70
     2
  9
$LUPREC
 70
     4
  9
$SKETCHINC
 40
0.1
  9
$FILLETRAD
 40
0.0
  9
$AUNITS
 70
     0
  9
$AUPREC
 70
     0
  9
$MENU
  1
acad
  9
$ELEVATION
 40
0.0
  9
$PELEVATION
 40
0.0
  9
$THICKNESS
 40
0.0
  9
$LIMCHECK
 70
     0
  9
$BLIPMODE
 70
     1
  9
$CHAMFERA
 40
0.0
  9
$CHAMFERB
 40
0.0
  9
$CHAMFERC
 40
0.0
  9
$CHAMFERD
 40
0.0
  9
$SKPOLY
 70
     0
  9
$TDCREATE
 40
0.000000000
  9
$TDUPDATE
 40
0.000000000
  9
$TDINDWG
 40
0.0000000000
  9
$TDUSRTIMER
 40
0.0000000000
  9
$USRTIMER
 70
     1
  9
$ANGBASE
 50
0.0
  9
$ANGDIR
 70
     0
  9
$PDMODE
 70
     0
  9
$PDSIZE
 40
0.0
  9
$PLINEWID
 40
0.0
  9
$COORDS
 70
     0
  9
$SPLFRAME
 70
     0
  9
$SPLINETYPE
 70
     6
  9
$SPLINESEGS
 70
     8
  9
$ATTDIA
 70
     0
  9
$ATTREQ
 70
     1
  9
$HANDLING
 70
     1
  9
$HANDSEED
  5
330
  9
$SURFTAB1
 70
     6
  9
$SURFTAB2
 70
     6
  9
$SURFTYPE
 70
     6
  9
$SURFU
 70
     6
  9
$SURFV
 70
     6
  9
$UCSNAME
  2

  9
$UCSORG
 10
0.0
 20
0.0
 30
0.0
  9
$UCSXDIR
 10
1.0
 20
0.0
 30
0.0
  9
$UCSYDIR
 10
0.0
 20
1.0
 30
0.0
  9
$PUCSNAME
  2

  9
$PUCSORG
 10
0.0
 20
0.0
 30
0.0
  9
$PUCSXDIR
 10
1.0
 20
0.0
 30
0.0
  9
$PUCSYDIR
 10
0.0
 20
1.0
 30
0.0
  9
$USERI1
 70
     0
  9
$USERI2
 70
     0
  9
$USERI3
 70
     0
  9
$USERI4
 70
     0
  9
$USERI5
 70
     0
  9
$USERR1
 40
0.0
  9
$USERR2
 40
0.0
  9
$USERR3
 40
0.0
  9
$USERR4
 40
0.0
  9
$USERR5
 40
0.0
  9
$WORLDVIEW
 70
     1
  9
$SHADEDGE
 70
     3
  9
$SHADEDIF
 70
    70
  9
$TILEMODE
 70
     1
  9
$MAXACTVP
 70
    16
  9
$PINSBASE
 10
0.0
 20
0.0
 30
0.0
  9
$PLIMCHECK
 70
     0
  9
$PEXTMIN
 10
1.000000E+20
 20
1.000000E+20
 30
1.000000E+20
  9
$PEXTMAX
 10
-1.000000E+20
 20
-1.000000E+20
 30
-1.000000E+20
  9
$PLIMMIN
 10
0.0
 20
0.0
  9
$PLIMMAX
 10
12.0
 20
9.0
  9
$UNITMODE
 70
     0
  9
$VISRETAIN
 70
     0
  9
$PLINEGEN
 70
     0
  9
$PSLTSCALE
 70
     0
  9
$TREEDEPTH
 70
  3020
  9
$PICKSTYLE
 70
     1
  9
$CMLSTYLE
  2
STANDARD
  9
$CMLJUST
 70
     0
  9
$CMLSCALE
 40
1.0
  9
$SAVEIMAGES
 70
     0
  0
ENDSEC
  0
SECTION
  2
CLASSES
  0
CLASS
  1
LWPOLYLINE
  2
AcDbPolyline
  3
"AutoCAD"
 90
        0
280
     0
281
     1
  0
CLASS
  1
IMAGE
  2
AcDbRasterImage
  3
ISM
 90
      127
280
     0
281
     1
  0
CLASS
  1
OLE2FRAME
  2
AcDbOle2Frame
  3
""
 90
        0
280
     0
281
     1
  0
CLASS
  1
HATCH
  2
AcDbHatch
  3
"ACAD_SEDONA"
 90
        0
280
     0
281
     1
  0
CLASS
  1
DICTIONARYVAR
  2
AcDbDictionaryVar
  3
"AutoCAD"
 90
        0
280
     0
281
     0
  0
CLASS
  1
RASTERVARIABLES
  2
AcDbRasterVariables
  3
ISM
 90
        0
280
     0
281
     0
  0
CLASS
  1
IMAGEDEF
  2
AcDbRasterImageDef
  3
ISM
 90
        0
280
     0
281
     0
  0
CLASS
  1
IMAGEDEF_REACTOR
  2
AcDbRasterImageDefReactor
  3
ISM
 90
        1
280
     0
281
     0
  0
CLASS
  1
IDBUFFER
  2
AcDbIdBuffer
  3
"Acad"
 90
        0
280
     0
281
     0
  0
CLASS
  1
SPATIAL_FILTER
  2
AcDbSpatialFilter
  3
"Acad"
 90
        0
280
     0
281
     0
  0
CLASS
  1
XRECORD
  2
AcDbXrecord
  3
"<Built In>"
 90
        0
280
     0
281
     0
  0
CLASS
  1
SORTENTSTABLE
  2
AcDbSortentsTable
  3
"AutoCAD"
 90
        0
280
     0
281
     0
  0
CLASS
  1
LAYER_INDEX
  2
AcDbLayerIndex
  3
"Acad"
 90
        0
280
     0
281
     0
  0
CLASS
  1
SPATIAL_INDEX
  2
AcDbSpatialIndex
  3
"Acad"
 90
        0
280
     0
281
     0
  0
CLASS
  1
OBJECT_PTR
  2
CAseDLPNTableRecord
  3
"ASE-LPNTableRecord"
 90
        1
280
     0
281
     0
  0
CLASS
  1
LAYOUT
  2
AcDbLayout
  3
"AutoCAD 2000"
 90
        1
280
     0
281
     0
  0
CLASS
  1
PLOTSETTINGS
  2
AcDbPlotSettings
  3
"AutoCAD 2000"
 90
        1
280
     0
281
     0
  0
CLASS
  1
ACDBDICTIONARYWDFLT
  2
AcDbDictionaryWithDefault
  3
"AutoCAD 2000"
 90
        1
280
     0
281
     0
  0
CLASS
  1
ACDBPLACEHOLDER
  2
AcDbPlaceHolder
  3
"AutoCAD 2000"
 90
        1
280
     0
281
     0
  0
CLASS
  1
VBA_PROJECT
  2
AcDbVbaProject
  3
"acadvba"
 90
        1
280
     0
281
     0
  0
CLASS
  1
WIPEOUT
  2
AcDbWipeout
  3
WipeOut|AutoCAD Express Tool|expresstools@autodesk.com
 90
      127
280
     0
281
     1
  0
CLASS
  1
WIPEOUTVARIABLES
  2
AcDbWipeoutVariables
  3
WipeOut|AutoCAD Express Tool|expresstools@autodesk.com
 90
        0
280
     0
281
     0
  0
CLASS
  1
RTEXT
  2
RText
  3
RText|AutoCAD Express Tool|expresstools@autodesk.com
 90
        0
280
     0
281
     1
  0
CLASS
  1
ARCALIGNEDTEXT
  2
AcDbArcAlignedText
  3
ATEXT|AutoCAD Express Tool|expresstools@autodesk.com
 90
        0
280
     0
281
     1
  0
ENDSEC
  0
SECTION
  2
TABLES
  0
TABLE
  2
VPORT
  5
7
100
AcDbSymbolTable
 70
     1
  0
VPORT
  5
15
100
AcDbSymbolTableRecord
100
AcDbViewportTableRecord
  2
*ACTIVE
 70
     0
 10
0.0
 20
0.0
 11
1.0
 21
1.0
 12
88.967173
 22
64.900176
 13
0.0
 23
0.0
 14
1.0
 24
1.0
 15
0.0
 25
0.0
 16
0.0
 26
0.0
 36
1.0
 17
0.0
 27
0.0
 37
0.0
 40
13.140349
 41
2.184233
 42
50.0
 43
0.0
 44
0.0
 50
0.0
 51
0.0
 71
     0
 72
   100
 73
     1
 74
     1
 75
     0
 76
     0
 77
     0
 78
     0
  0
ENDTAB
  0
TABLE
  2
LTYPE
  5
4
100
AcDbSymbolTable
 70
    14
  0
LTYPE
  5
11
100
AcDbSymbolTableRecord
100
AcDbLinetypeTableRecord
  2
BYBLOCK
 70
    64
  3

 72
    65
 73
     0
 40
0.0
  0
LTYPE
  5
12
100
AcDbSymbolTableRecord
100
AcDbLinetypeTableRecord
  2
BYLAYER
 70
    64
  3

 72
    65
 73
     0
 40
0.0
  0
LTYPE
  5
13
100
AcDbSymbolTableRecord
100
AcDbLinetypeTableRecord
  2
CONTINUOUS
 70
    64
  3
Solid line
 72
    65
 73
     0
 40
0.0
  0
LTYPE
  5
1E
100
AcDbSymbolTableRecord
100
AcDbLinetypeTableRecord
  2
BORDER
 70
    64
  3
Border __ __ . __ __ . __ __ . __ __ . __ __ .
 72
    65
 73
     6
 40
1.75
 49
0.5
 74
     0
 49
-0.25
 74
     0
 49
0.5
 74
     0
 49
-0.25
 74
     0
 49
0.0
 74
     0
 49
-0.25
 74
     0
  0
LTYPE
  5
1F
100
AcDbSymbolTableRecord
100
AcDbLinetypeTableRecord
  2
BORDER2
 70
    64
  3
Border (.5x) __.__.__.__.__.__.__.__.__.__.__.
 72
    65
 73
     6
 40
0.875
 49
0.25
 74
     0
 49
-0.125
 74
     0
 49
0.25
 74
     0
 49
-0.125
 74
     0
 49
0.0
 74
     0
 49
-0.125
 74
     0
  0
LTYPE
  5
20
100
AcDbSymbolTableRecord
100
AcDbLinetypeTableRecord
  2
CENTER
 70
    64
  3
Center ____ _ ____ _ ____ _ ____ _ ____ _ ____
 72
    65
 73
     4
 40
2.0
 49
1.25
 74
     0
 49
-0.25
 74
     0
 49
0.25
 74
     0
 49
-0.25
 74
     0
  0
LTYPE
  5
21
100
AcDbSymbolTableRecord
100
AcDbLinetypeTableRecord
  2
DASHDOT
 70
    64
  3
Dash dot __ . __ . __ . __ . __ . __ . __ . __
 72
    65
 73
     4
 40
1.0
 49
0.5
 74
     0
 49
-0.25
 74
     0
 49
0.0
 74
     0
 49
-0.25
 74
     0
  0
LTYPE
  5
22
100
AcDbSymbolTableRecord
100
AcDbLinetypeTableRecord
  2
DASHDOT2
 70
    64
  3
Dash dot (.5x) _._._._._._._._._._._._._._._.
 72
    65
 73
     4
 40
0.5
 49
0.25
 74
     0
 49
-0.125
 74
     0
 49
0.0
 74
     0
 49
-0.125
 74
     0
  0
LTYPE
  5
23
100
AcDbSymbolTableRecord
100
AcDbLinetypeTableRecord
  2
DASHED
 70
    64
  3
Dashed __ __ __ __ __ __ __ __ __ __ __ __ __ _
 72
    65
 73
     2
 40
0.75
 49
0.5
 74
     0
 49
-0.25
 74
     0
  0
LTYPE
  5
24
100
AcDbSymbolTableRecord
100
AcDbLinetypeTableRecord
  2
DIVIDE
 70
    64
  3
Divide ____ . . ____ . . ____ . . ____ . . ____
 72
    65
 73
     6
 40
1.25
 49
0.5
 74
     0
 49
-0.25
 74
     0
 49
0.0
 74
     0
 49
-0.25
 74
     0
 49
0.0
 74
     0
 49
-0.25
 74
     0
  0
LTYPE
  5
25
100
AcDbSymbolTableRecord
100
AcDbLinetypeTableRecord
  2
DIVIDE2
 70
    64
  3
Divide (.5x) __..__..__..__..__..__..__..__.._
 72
    65
 73
     6
 40
0.625
 49
0.25
 74
     0
 49
-0.125
 74
     0
 49
0.0
 74
     0
 49
-0.125
 74
     0
 49
0.0
 74
     0
 49
-0.125
 74
     0
  0
LTYPE
  5
26
100
AcDbSymbolTableRecord
100
AcDbLinetypeTableRecord
  2
DOT
 70
    64
  3
Dot . . . . . . . . . . . . . . . . . . . . . .
 72
    65
 73
     2
 40
0.25
 49
0.0
 74
     0
 49
-0.25
 74
     0
  0
LTYPE
  5
27
100
AcDbSymbolTableRecord
100
AcDbLinetypeTableRecord
  2
HIDDEN
 70
    64
  3
Hidden __ __ __ __ __ __ __ __ __ __ __ __ __ _
 72
    65
 73
     2
 40
0.375
 49
0.25
 74
     0
 49
-0.125
 74
     0
  0
LTYPE
  5
28
100
AcDbSymbolTableRecord
100
AcDbLinetypeTableRecord
  2
PHANTOM
 70
    64
  3
Phantom ______  __  __  ______  __  __  ______
 72
    65
 73
     6
 40
2.5
 49
1.25
 74
     0
 49
-0.25
 74
     0
 49
0.25
 74
     0
 49
-0.25
 74
     0
 49
0.25
 74
     0
 49
-0.25
 74
     0
  0
ENDTAB
  0
TABLE
  2
LAYER
  5
2
100
AcDbSymbolTable
 70
     4
  0
LAYER
  5
14
100
AcDbSymbolTableRecord
100
AcDbLayerTableRecord
  2
0
 70
     0
 62
     7
  6
CONTINUOUS
  0
LAYER
  5
29
100
AcDbSymbolTableRecord
100
AcDbLayerTableRecord
  2
1
 70
     0
 62
     7
  6
CONTINUOUS
  0
LAYER
  5
2A
100
AcDbSymbolTableRecord
100
AcDbLayerTableRecord
  2
6
 70
     0
 62
     7
  6
CONTINUOUS
  0
LAYER
  5
2B
100
AcDbSymbolTableRecord
100
AcDbLayerTableRecord
  2
10
 70
     0
 62
     7
  6
CONTINUOUS
  0
ENDTAB
  0
TABLE
  2
STYLE
  5
3
100
AcDbSymbolTable
 70
     2
  0
STYLE
  5
17
100
AcDbSymbolTableRecord
100
AcDbTextStyleTableRecord
  2
STANDARD
 70
     0
 40
0.0
 41
1.0
 50
0.0
 71
     0
 42
0.0
  3
txt
  4

  0
STYLE
  5
1D
100
AcDbSymbolTableRecord
100
AcDbTextStyleTableRecord
  2

 70
    65
 40
0.0
 41
1.0
 50
0.0
 71
     0
 42
0.2
  3
ltypeshp.shx
  4

  0
ENDTAB
  0
TABLE
  2
VIEW
  5
5
100
AcDbSymbolTable
 70
     0
  0
ENDTAB
  0
TABLE
  2
UCS
  5
6
100
AcDbSymbolTable
 70
     0
  0
ENDTAB
  0
TABLE
  2
APPID
  5
8
100
AcDbSymbolTable
 70
     1
  0
APPID
  5
16
100
AcDbSymbolTableRecord
100
AcDbRegAppTableRecord
  2
ACAD
 70
     0
  0
ENDTAB
  0
TABLE
  2
DIMSTYLE
  5
9
100
AcDbSymbolTable
 70
     1
  0
DIMSTYLE
105
18
100
AcDbSymbolTableRecord
100
AcDbDimStyleTableRecord
  2
STANDARD
 70
     0
  3

  4

  5

  6

  7

 40
1.0
 41
0.18
 42
0.0625
 43
0.38
 44
0.18
 45
0.0
 46
0.0
 47
0.0
 48
0.0
 71
     0
 72
     0
 73
     1
 74
     1
 75
     0
 76
     0
 77
     0
 78
     0
140
0.18
141
0.09
142
0.0
143
25.4
144
1.0
145
0.0
146
1.0
147
0.09
170
     0
171
     2
172
     0
173
     0
174
     0
175
     0
176
     0
177
     0
178
     0
270
     2
271
     4
272
     4
273
     2
274
     2
275
     0
280
     0
281
     0
282
     0
283
     1
284
     0
285
     0
286
     0
287
     0
288
     0
340
17
  0
ENDTAB
  0
TABLE
  2
BLOCK_RECORD
  5
1
100
AcDbSymbolTable
 70
     0
  0
BLOCK_RECORD
  5
A
100
AcDbSymbolTableRecord
100
AcDbBlockTableRecord
  2
*MODEL_SPACE
  0
BLOCK_RECORD
  5
B
100
AcDbSymbolTableRecord
100
AcDbBlockTableRecord
  2
*PAPER_SPACE
  0
ENDTAB
  0
ENDSEC
  0
SECTION
  2
BLOCKS
  0
BLOCK
  5
D
100
AcDbEntity
  8
0
100
AcDbBlockBegin
  2
*MODEL_SPACE
 70
     0
 10
0.0
 20
0.0
 30
0.0
  3
*MODEL_SPACE
  1

  0
ENDBLK
  5
E
100
AcDbEntity
  8
0
100
AcDbBlockEnd
  0
BLOCK
  5
F
100
AcDbEntity
 67
     1
  8
0
100
AcDbBlockBegin
  2
*PAPER_SPACE
 70
     0
 10
0.0
 20
0.0
 30
0.0
  3
*PAPER_SPACE
  1

  0
ENDBLK
  5
10
100
AcDbEntity
 67
     1
  8
0
100
AcDbBlockEnd
  0
ENDSEC
  0
SECTION
  2
ENTITIES
  0
ARC
  5
2C
100
AcDbEntity
  8
1
  6
CONTINUOUS
 62
     5
 48
0.297755
100
AcDbCircle
 10
97.578879
 20
61.499244
 30
0.0
 40
0.0625
100
AcDbArc
 50
95.941641
 51
270.0
  0
ARC
  5
2D
100
AcDbEntity
  8
1
  6
CONTINUOUS
 62
     5
 48
0.297755
100
AcDbCircle
 10
98.203879
 20
60.531744
 30
0.0
 40
0.0625
100
AcDbArc
 50
270.0
 51
0.0
  0
POLYLINE
  5
2E
100
AcDbEntity
  8
1
  6
CONTINUOUS
 62
     5
 48
0.297755
100
AcDb2dPolyline
 66
     1
 10
0.0
 20
0.0
 30
0.0
 70
   128
  0
VERTEX
  5
2F
100
AcDbEntity
  8
1
  6
CONTINUOUS
 62
     5
 48
0.297755
100
AcDbVertex
100
AcDb2dVertex
 10
98.203879
 20
60.469244
 30
0.0
 40
0.0
 41
0.0
  0
VERTEX
  5
30
100
AcDbEntity
  8
1
  6
CONTINUOUS
 62
     5
 48
0.297755
100
AcDbVertex
100
AcDb2dVertex
 10
86.516379
 20
60.469244
 30
0.0
 40
0.0
 41
0.0
  0
SEQEND
  5
31
100
AcDbEntity
  8
0
  0
POLYLINE
  5
32
100
AcDbEntity
  8
1
  6
CONTINUOUS
 62
     5
 48
0.297755
100
AcDb2dPolyline
 66
     1
 10
0.0
 20
0.0
 30
0.0
 70
   128
  0
VERTEX
  5
33
100
AcDbEntity
  8
1
  6
CONTINUOUS
 62
     5
 48
0.297755
100
AcDbVertex
100
AcDb2dVertex
 10
98.266379
 20
60.531744
 30
0.0
 40
0.0
 41
0.0
  0
VERTEX
  5
34
100
AcDbEntity
  8
1
  6
CONTINUOUS
 62
     5
 48
0.297755
100
AcDbVertex
100
AcDb2dVertex
 10
98.266379
 20
61.374244
 30
0.0
 40
0.0
 41
0.0
  0
SEQEND
  5
35
100
AcDbEntity
  8
0
  0
ARC
  5
36
100
AcDbEntity
  8
1
  6
CONTINUOUS
 62
     5
 48
0.297755
100
AcDbCircle
 10
98.203879
 20
61.374244
 30
0.0
 40
0.0625
100
AcDbArc
 50
0.0
 51
90.0
  0
POLYLINE
  5
37
100
AcDbEntity
  8
1
  6
CONTINUOUS
 62
     5
 48
0.297755
100
AcDb2dPolyline
 66
     1
 10
0.0
 20
0.0
 30
0.0
 70
   128
  0
VERTEX
  5
38
100
AcDbEntity
  8
1
  6
CONTINUOUS
 62
     5
 48
0.297755
100
AcDbVertex
100
AcDb2dVertex
 10
98.203879
 20
61.436744
 30
0.0
 40
0.0
 41
0.0
  0
VERTEX
  5
39
100
AcDbEntity
  8
1
  6
CONTINUOUS
 62
     5
 48
0.297755
100
AcDbVertex
100
AcDb2dVertex
 10
97.578879
 20
61.436744
 30
0.0
 40
0.0
 41
0.0
  0
SEQEND
  5
3A
100
AcDbEntity
  8
0
  0
POLYLINE
  5
3B
100
AcDbEntity
  8
1
  6
CENTER
 62
     5
 48
0.5
100
AcDb2dPolyline
 66
     1
 10
0.0
 20
0.0
 30
0.0
 70
   128
  0
VERTEX
  5
3C
100
AcDbEntity
  8
1
  6
CENTER
 62
     5
 48
0.5
100
AcDbVertex
100
AcDb2dVertex
 10
86.516379
 20
70.14938
 30
0.0
 40
0.0
 41
0.0
  0
VERTEX
  5
3D
100
AcDbEntity
  8
1
  6
CENTER
 62
     5
 48
0.5
100
AcDbVertex
100
AcDb2dVertex
 10
86.516379
 20
60.469244
 30
0.0
 40
0.0
 41
0.0
  0
SEQEND
  5
3E
100
AcDbEntity
  8
0
  0
POLYLINE
  5
3F
100
AcDbEntity
  8
1
  6
CONTINUOUS
 62
     5
 48
0.297755
100
AcDb2dPolyline
 66
     1
 10
0.0
 20
0.0
 30
0.0
 70
   128
  0
VERTEX
  5
40
100
AcDbEntity
  8
1
  6
CONTINUOUS
 62
     5
 48
0.297755
100
AcDbVertex
100
AcDb2dVertex
 10
74.616379
 20
61.649244
 30
0.0
 40
0.0
 41
0.0
  0
VERTEX
  5
41
100
AcDbEntity
  8
1
  6
CONTINUOUS
 62
     5
 48
0.297755
100
AcDbVertex
100
AcDb2dVertex
 10
75.460349
 20
61.561409
 30
0.0
 40
0.0
 41
0.0
  0
SEQEND
  5
42
100
AcDbEntity
  8
0
  0
ARC
  5
43
100
AcDbEntity
  8
1
  6
CONTINUOUS
 62
     5
 48
0.297755
100
AcDbCircle
 10
75.453879
 20
61.499244
 30
0.0
 40
0.0625
100
AcDbArc
 50
270.0
 51
84.058359
  0
ARC
  5
44
100
AcDbEntity
  8
1
  6
CONTINUOUS
 62
     5
 48
0.297755
100
AcDbCircle
 10
74.828879
 20
60.531744
 30
0.0
 40
0.0625
100
AcDbArc
 50
180.0
 51
270.0
  0
POLYLINE
  5
45
100
AcDbEntity
  8
1
  6
CONTINUOUS
 62
     5
 48
0.297755
100
AcDb2dPolyline
 66
     1
 10
0.0
 20
0.0
 30
0.0
 70
   128
  0
VERTEX
  5
46
100
AcDbEntity
  8
1
  6
CONTINUOUS
 62
     5
 48
0.297755
100
AcDbVertex
100
AcDb2dVertex
 10
74.828879
 20
60.469244
 30
0.0
 40
0.0
 41
0.0
  0
VERTEX
  5
47
100
AcDbEntity
  8
1
  6
CONTINUOUS
 62
     5
 48
0.297755
100
AcDbVertex
100
AcDb2dVertex
 10
86.516379
 20
60.469244
 30
0.0
 40
0.0
 41
0.0
  0
SEQEND
  5
48
100
AcDbEntity
  8
0
  0
POLYLINE
  5
49
100
AcDbEntity
  8
1
  6
CONTINUOUS
 62
     5
 48
0.297755
100
AcDb2dPolyline
 66
     1
 10
0.0
 20
0.0
 30
0.0
 70
   128
  0
VERTEX
  5
4A
100
AcDbEntity
  8
1
  6
CONTINUOUS
 62
     5
 48
0.297755
100
AcDbVertex
100
AcDb2dVertex
 10
74.766379
 20
60.531744
 30
0.0
 40
0.0
 41
0.0
  0
VERTEX
  5
4B
100
AcDbEntity
  8
1
  6
CONTINUOUS
 62
     5
 48
0.297755
100
AcDbVertex
100
AcDb2dVertex
 10
74.766379
 20
61.374244
 30
0.0
 40
0.0
 41
0.0
  0
SEQEND
  5
4C
100
AcDbEntity
  8
0
  0
ARC
  5
4D
100
AcDbEntity
  8
1
  6
CONTINUOUS
 62
     5
 48
0.297755
100
AcDbCircle
 10
74.828879
 20
61.374244
 30
0.0
 40
0.0625
100
AcDbArc
 50
90.0
 51
180.0
  0
POLYLINE
  5
4E
100
AcDbEntity
  8
1
  6
CONTINUOUS
 62
     5
 48
0.297755
100
AcDb2dPolyline
 66
     1
 10
0.0
 20
0.0
 30
0.0
 70
   128
  0
VERTEX
  5
4F
100
AcDbEntity
  8
1
  6
CONTINUOUS
 62
     5
 48
0.297755
100
AcDbVertex
100
AcDb2dVertex
 10
74.828879
 20
61.436744
 30
0.0
 40
0.0
 41
0.0
  0
VERTEX
  5
50
100
AcDbEntity
  8
1
  6
CONTINUOUS
 62
     5
 48
0.297755
100
AcDbVertex
100
AcDb2dVertex
 10
75.453879
 20
61.436744
 30
0.0
 40
0.0
 41
0.0
  0
SEQEND
  5
51
100
AcDbEntity
  8
0
  0
POLYLINE
  5
52
100
AcDbEntity
  8
1
  6
CONTINUOUS
 62
     5
 48
2.094053
100
AcDb2dPolyline
 66
     1
 10
0.0
 20
0.0
 30
0.0
 70
   128
  0
VERTEX
  5
53
100
AcDbEntity
  8
1
  6
CONTINUOUS
 62
     5
 48
2.094053
100
AcDbVertex
100
AcDb2dVertex
 10
98.374032
 20
61.845406
 30
0.0
 40
0.0
 41
0.0
  0
VERTEX
  5
54
100
AcDbEntity
  8
1
  6
CONTINUOUS
 62
     5
 48
2.094053
100
AcDbVertex
100
AcDb2dVertex
 10
98.330956
 20
62.041337
 30
0.0
 40
0.0
 41
0.0
  0
VERTEX
  5
55
100
AcDbEntity
  8
1
  6
CONTINUOUS
 62
     5
 48
2.094053
100
AcDbVertex
100
AcDb2dVertex
 10
98.286423
 20
62.23681
 30
0.0
 40
0.0
 41
0.0
  0
VERTEX
  5
56
100
AcDbEntity
  8
1
  6
CONTINUOUS
 62
     5
 48
2.094053
100
AcDbVertex
100
AcDb2dVertex
 10
98.239703
 20
62.431593
 30
0.0
 40
0.0
 41
0.0
  0
VERTEX
  5
57
100
AcDbEntity
  8
1
  6
CONTINUOUS
 62
     5
 48
2.094053
100
AcDbVertex
100
AcDb2dVertex
 10
98.190067
 20
62.625458
 30
0.0
 40
0.0
 41
0.0
  0
VERTEX
  5
58
100
AcDbEntity
  8
1
  6
CONTINUOUS
 62
     5
 48
2.094053
100
AcDbVertex
100
AcDb2dVertex
 10
98.136787
 20
62.818174
 30
0.0
 40
0.0
 41
0.0
  0
VERTEX
  5
59
100
AcDbEntity
  8
1
  6
CONTINUOUS
 62
     5
 48
2.094053
100
AcDbVertex
100
AcDb2dVertex
 10
98.079134
 20
63.009513
 30
0.0
 40
0.0
 41
0.0
  0
VERTEX
  5
5A
100
AcDbEntity
  8
1
  6
CONTINUOUS
 62
     5
 48
2.094053
100
AcDbVertex
100
AcDb2dVertex
 10
98.016379
 20
63.199244
 30
0.0
 40
0.0
 41
0.0
  0
VERTEX
  5
5B
100
AcDbEntity
  8
1
  6
CONTINUOUS
 62
     5
 48
2.094053
100
AcDbVertex
100
AcDb2dVertex
 10
97.964466
 20
63.343399
 30
0.0
 40
0.0
 41
0.0
  0
VERTEX
  5
5C
100
AcDbEntity
  8
1
  6
CONTINUOUS
 62
     5
 48
2.094053
100
AcDbVertex
100
AcDb2dVertex
 10
97.909262
 20
63.486439
 30
0.0
 40
0.0
 41
0.0
  0
VERTEX
  5
5D
100
AcDbEntity
  8
1
  6
CONTINUOUS
 62
     5
 48
2.094053
100
AcDbVertex
100
AcDb2dVertex
 10
97.8509
 20
63.628329
 30
0.0
 40
0.0
 41
0.0
  0
VERTEX
  5
5E
100
AcDbEntity
  8
1
  6
CONTINUOUS
 62
     5
 48
2.094053
100
AcDbVertex
100
AcDb2dVertex
 10
97.789514
 20
63.769031
 30
0.0
 40
0.0
 41
0.0
  0
VERTEX
  5
5F
100
AcDbEntity
  8
1
  6
CONTINUOUS
 62
     5
 48
2.094053
100
AcDbVertex
100
AcDb2dVertex
 10
97.725236
 20
63.90851
 30
0.0
 40
0.0
 41
0.0
  0
VERTEX
  5
60
100
AcDbEntity
  8
1
  6
CONTINUOUS
 62
     5
 48
2.094053
100
AcDbVertex
100
AcDb2dVertex
 10
97.658199
 20
64.046729
 30
0.0
 40
0.0
 41
0.0
  0
VERTEX
  5
61
100
AcDbEntity
  8
1
  6
CONTINUOUS
 62
     5
 48
2.094053
100
AcDbVertex
100
AcDb2dVertex
 10
97.588536
 20
64.183653
 30
0.0
 40
0.0
 41
0.0
  0
VERTEX
  5
62
100
AcDbEntity
  8
1
  6
CONTINUOUS
 62
     5
 48
2.094053
100
AcDbVertex
100
AcDb2dVertex
 10
97.516379
 20
64.319244
 30
0.0
 40
0.0
 41
0.0
  0
VERTEX
  5
63
100
AcDbEntity
  8
1
  6
CONTINUOUS
 62
     5
 48
2.094053
100
AcDbVertex
100
AcDb2dVertex
 10
97.458738
 20
64.423534
 30
0.0
 40
0.0
 41
0.0
  0
VERTEX
  5
64
100
AcDbEntity
  8
1
  6
CONTINUOUS
 62
     5
 48
2.094053
100
AcDbVertex
100
AcDb2dVertex
 10
97.399686
 20
64.526985
 30
0.0
 40
0.0
 41
0.0
  0
VERTEX
  5
65
100
AcDbEntity
  8
1
  6
CONTINUOUS
 62
     5
 48
2.094053
100
AcDbVertex
100
AcDb2dVertex
 10
97.339235
 20
64.629582
 30
0.0
 40
0.0
 41
0.0
  0
VERTEX
  5
66
100
AcDbEntity
  8
1
  6
CONTINUOUS
 62
     5
 48
2.094053
100
AcDbVertex
100
AcDb2dVertex
 10
97.277396
 20
64.73131
 30
0.0
 40
0.0
 41
0.0
  0
VERTEX
  5
67
100
AcDbEntity
  8
1
  6
CONTINUOUS
 62
     5
 48
2.094053
100
AcDbVertex
100
AcDb2dVertex
 10
97.214179
 20
64.832156
 30
0.0
 40
0.0
 41
0.0
  0
VERTEX
  5
68
100
AcDbEntity
  8
1
  6
CONTINUOUS
 62
     5
 48
2.094053
100
AcDbVertex
100
AcDb2dVertex
 10
97.149597
 20
64.932103
 30
0.0
 40
0.0
 41
0.0
  0
VERTEX
  5
69
100
AcDbEntity
  8
1
  6
CONTINUOUS
 62
     5
 48
2.094053
100
AcDbVertex
100
AcDb2dVertex
 10
97.08366
 20
65.031138
 30
0.0
 40
0.0
 41
0.0
  0
VERTEX
  5
6A
100
AcDbEntity
  8
1
  6
CONTINUOUS
 62
     5
 48
2.094053
100
AcDbVertex
100
AcDb2dVertex
 10
97.016379
 20
65.129244
 30
0.0
 40
0.0
 41
0.0
  0
VERTEX
  5
6B
100
AcDbEntity
  8
1
  6
CONTINUOUS
 62
     5
 48
2.094053
100
AcDbVertex
100
AcDb2dVertex
 10
96.95678
 20
65.213825
 30
0.0
 40
0.0
 41
0.0
  0
VERTEX
  5
6C
100
AcDbEntity
  8
1
  6
CONTINUOUS
 62
     5
 48
2.094053
100
AcDbVertex
100
AcDb2dVertex
 10
96.896232
 20
65.297733
 30
0.0
 40
0.0
 41
0.0
  0
VERTEX
  5
6D
100
AcDbEntity
  8
1
  6
CONTINUOUS
 62
     5
 48
2.094053
100
AcDbVertex
100
AcDb2dVertex
 10
96.834796
 20
65.381006
 30
0.0
 40
0.0
 41
0.0
  0
VERTEX
  5
6E
100
AcDbEntity
  8
1
  6
CONTINUOUS
 62
     5
 48
2.094053
100
AcDbVertex
100
AcDb2dVertex
 10
96.772531
 20
65.463685
 30
0.0
 40
0.0
 41
0.0
  0
VERTEX
  5
6F
100
AcDbEntity
  8
1
  6
CONTINUOUS
 62
     5
 48
2.094053
100
AcDbVertex
100
AcDb2dVertex
 10
96.709497
 20
65.545808
 30
0.0
 40
0.0
 41
0.0
  0
VERTEX
  5
70
100
AcDbEntity
  8
1
  6
CONTINUOUS
 62
     5
 48
2.094053
100
AcDbVertex
100
AcDb2dVertex
 10
96.645754
 20
65.627416
 30
0.0
 40
0.0
 41
0.0
  0
VERTEX
  5
71
100
AcDbEntity
  8
1
  6
CONTINUOUS
 62
     5
 48
2.094053
100
AcDbVertex
100
AcDb2dVertex
 10
96.581361
 20
65.708549
 30
0.0
 40
0.0
 41
0.0
  0
VERTEX
  5
72
100
AcDbEntity
  8
1
  6
CONTINUOUS
 62
     5
 48
2.094053
100
AcDbVertex
100
AcDb2dVertex
 10
96.516379
 20
65.789244
 30
0.0
 40
0.0
 41
0.0
  0
VERTEX
  5
73
100
AcDbEntity
  8
1
  6
CONTINUOUS
 62
     5
 48
2.094053
100
AcDbVertex
100
AcDb2dVertex
 10
96.398928
 20
65.932368
 30
0.0
 40
0.0
 41
0.0
  0
VERTEX
  5
74
100
AcDbEntity
  8
1
  6
CONTINUOUS
 62
     5
 48
2.094053
100
AcDbVertex
100
AcDb2dVertex
 10
96.279631
 20
66.073992
 30
0.0
 40
0.0
 41
0.0
  0
VERTEX
  5
75
100
AcDbEntity
  8
1
  6
CONTINUOUS
 62
     5
 48
2.094053
100
AcDbVertex
100
AcDb2dVertex
 10
96.158332
 20
66.213885
 30
0.0
 40
0.0
 41
0.0
  0
VERTEX
  5
76
100
AcDbEntity
  8
1
  6
CONTINUOUS
 62
     5
 48
2.094053
100
AcDbVertex
100
AcDb2dVertex
 10
96.034876
 20
66.351814
 30
0.0
 40
0.0
 41
0.0
  0
VERTEX
  5
77
100
AcDbEntity
  8
1
  6
CONTINUOUS
 62
     5
 48
2.094053
100
AcDbVertex
100
AcDb2dVertex
 10
95.909109
 20
66.487547
 30
0.0
 40
0.0
 41
0.0
  0
VERTEX
  5
78
100
AcDbEntity
  8
1
  6
CONTINUOUS
 62
     5
 48
2.094053
100
AcDbVertex
100
AcDb2dVertex
 10
95.780874
 20
66.620852
 30
0.0
 40
0.0
 41
0.0
  0
VERTEX
  5
79
100
AcDbEntity
  8
1
  6
CONTINUOUS
 62
     5
 48
2.094053
100
AcDbVertex
100
AcDb2dVertex
 10
95.650016
 20
66.751495
 30
0.0
 40
0.0
 41
0.0
  0
VERTEX
  5
7A
100
AcDbEntity
  8
1
  6
CONTINUOUS
 62
     5
 48
2.094053
100
AcDbVertex
100
AcDb2dVertex
 10
95.516379
 20
66.879244
 30
0.0
 40
0.0
 41
0.0
  0
VERTEX
  5
7B
100
AcDbEntity
  8
1
  6
CONTINUOUS
 62
     5
 48
2.094053
100
AcDbVertex
100
AcDb2dVertex
 10
95.397777
 20
66.987889
 30
0.0
 40
0.0
 41
0.0
  0
VERTEX
  5
7C
100
AcDbEntity
  8
1
  6
CONTINUOUS
 62
     5
 48
2.094053
100
AcDbVertex
100
AcDb2dVertex
 10
95.277085
 20
67.094253
 30
0.0
 40
0.0
 41
0.0
  0
VERTEX
  5
7D
100
AcDbEntity
  8
1
  6
CONTINUOUS
 62
     5
 48
2.094053
100
AcDbVertex
100
AcDb2dVertex
 10
95.154434
 20
67.198419
 30
0.0
 40
0.0
 41
0.0
  0
VERTEX
  5
7E
100
AcDbEntity
  8
1
  6
CONTINUOUS
 62
     5
 48
2.094053
100
AcDbVertex
100
AcDb2dVertex
 10
95.029955
 20
67.300472
 30
0.0
 40
0.0
 41
0.0
  0
VERTEX
  5
7F
100
AcDbEntity
  8
1
  6
CONTINUOUS
 62
     5
 48
2.094053
100
AcDbVertex
100
AcDb2dVertex
 10
94.90378
 20
67.400497
 30
0.0
 40
0.0
 41
0.0
  0
VERTEX
  5
80
100
AcDbEntity
  8
1
  6
CONTINUOUS
 62
     5
 48
2.094053
100
AcDbVertex
100
AcDb2dVertex
 10
94.776038
 20
67.498578
 30
0.0
 40
0.0
 41
0.0
  0
VERTEX
  5
81
100
AcDbEntity
  8
1
  6
CONTINUOUS
 62
     5
 48
2.094053
100
AcDbVertex
100
AcDb2dVertex
 10
94.646861
 20
67.594799
 30
0.0
 40
0.0
 41
0.0
  0
VERTEX
  5
82
100
AcDbEntity
  8
1
  6
CONTINUOUS
 62
     5
 48
2.094053
100
AcDbVertex
100
AcDb2dVertex
 10
94.516379
 20
67.689244
 30
0.0
 40
0.0
 41
0.0
  0
VERTEX
  5
83
100
AcDbEntity
  8
1
  6
CONTINUOUS
 62
     5
 48
2.094053
100
AcDbVertex
100
AcDb2dVertex
 10
94.394938
 20
67.774857
 30
0.0
 40
0.0
 41
0.0
  0
VERTEX
  5
84
100
AcDbEntity
  8
1
  6
CONTINUOUS
 62
     5
 48
2.094053
100
AcDbVertex
100
AcDb2dVertex
 10
94.272491
 20
67.858975
 30
0.0
 40
0.0
 41
0.0
  0
VERTEX
  5
85
100
AcDbEntity
  8
1
  6
CONTINUOUS
 62
     5
 48
2.094053
100
AcDbVertex
100
AcDb2dVertex
 10
94.149034
 20
67.941544
 30
0.0
 40
0.0
 41
0.0
  0
VERTEX
  5
86
100
AcDbEntity
  8
1
  6
CONTINUOUS
 62
     5
 48
2.094053
100
AcDbVertex
100
AcDb2dVertex
 10
94.02456
 20
68.02251
 30
0.0
 40
0.0
 41
0.0
  0
VERTEX
  5
87
100
AcDbEntity
  8
1
  6
CONTINUOUS
 62
     5
 48
2.094053
100
AcDbVertex
100
AcDb2dVertex
 10
93.899063
 20
68.101818
 30
0.0
 40
0.0
 41
0.0
  0
VERTEX
  5
88
100
AcDbEntity
  8
1
  6
CONTINUOUS
 62
     5
 48
2.094053
100
AcDbVertex
100
AcDb2dVertex
 10
93.772538
 20
68.179413
 30
0.0
 40
0.0
 41
0.0
  0
VERTEX
  5
89
100
AcDbEntity
  8
1
  6
CONTINUOUS
 62
     5
 48
2.094053
100
AcDbVertex
100
AcDb2dVertex
 10
93.644979
 20
68.25524
 30
0.0
 40
0.0
 41
0.0
  0
VERTEX
  5
8A
100
AcDbEntity
  8
1
  6
CONTINUOUS
 62
     5
 48
2.094053
100
AcDbVertex
100
AcDb2dVertex
 10
93.516379
 20
68.329244
 30
0.0
 40
0.0
 41
0.0
  0
VERTEX
  5
8B
100
AcDbEntity
  8
1
  6
CONTINUOUS
 62
     5
 48
2.094053
100
AcDbVertex
100
AcDb2dVertex
 10
93.393842
 20
68.397518
 30
0.0
 40
0.0
 41
0.0
  0
VERTEX
  5
8C
100
AcDbEntity
  8
1
  6
CONTINUOUS
 62
     5
 48
2.094053
100
AcDbVertex
100
AcDb2dVertex
 10
93.270447
 20
68.464243
 30
0.0
 40
0.0
 41
0.0
  0
VERTEX
  5
8D
100
AcDbEntity
  8
1
  6
CONTINUOUS
 62
     5
 48
2.094053
100
AcDbVertex
100
AcDb2dVertex
 10
93.146271
 20
68.529546
 30
0.0
 40
0.0
 41
0.0
  0
VERTEX
  5
8E
100
AcDbEntity
  8
1
  6
CONTINUOUS
 62
     5
 48
2.094053
100
AcDbVertex
100
AcDb2dVertex
 10
93.021391
 20
68.593557
 30
0.0
 40
0.0
 41
0.0
  0
VERTEX
  5
8F
100
AcDbEntity
  8
1
  6
CONTINUOUS
 62
     5
 48
2.094053
100
AcDbVertex
100
AcDb2dVertex
 10
92.895885
 20
68.656403
 30
0.0
 40
0.0
 41
0.0
  0
VERTEX
  5
90
100
AcDbEntity
  8
1
  6
CONTINUOUS
 62
     5
 48
2.094053
100
AcDbVertex
100
AcDb2dVertex
 10
92.76983
 20
68.718214
 30
0.0
 40
0.0
 41
0.0
  0
VERTEX
  5
91
100
AcDbEntity
  8
1
  6
CONTINUOUS
 62
     5
 48
2.094053
100
AcDbVertex
100
AcDb2dVertex
 10
92.643302
 20
68.779119
 30
0.0
 40
0.0
 41
0.0
  0
VERTEX
  5
92
100
AcDbEntity
  8
1
  6
CONTINUOUS
 62
     5
 48
2.094053
100
AcDbVertex
100
AcDb2dVertex
 10
92.516379
 20
68.839244
 30
0.0
 40
0.0
 41
0.0
  0
VERTEX
  5
93
100
AcDbEntity
  8
1
  6
CONTINUOUS
 62
     5
 48
2.094053
100
AcDbVertex
100
AcDb2dVertex
 10
92.392978
 20
68.896879
 30
0.0
 40
0.0
 41
0.0
  0
VERTEX
  5
94
100
AcDbEntity
  8
1
  6
CONTINUOUS
 62
     5
 48
2.094053
100
AcDbVertex
100
AcDb2dVertex
 10
92.269224
 20
68.953737
 30
0.0
 40
0.0
 41
0.0
  0
VERTEX
  5
95
100
AcDbEntity
  8
1
  6
CONTINUOUS
 62
     5
 48
2.094053
100
AcDbVertex
100
AcDb2dVertex
 10
92.145067
 20
69.009651
 30
0.0
 40
0.0
 41
0.0
  0
VERTEX
  5
96
100
AcDbEntity
  8
1
  6
CONTINUOUS
 62
     5
 48
2.094053
100
AcDbVertex
100
AcDb2dVertex
 10
92.020453
 20
69.064454
 30
0.0
 40
0.0
 41
0.0
  0
VERTEX
  5
97
100
AcDbEntity
  8
1
  6
CONTINUOUS
 62
     5
 48
2.094053
100
AcDbVertex
100
AcDb2dVertex
 10
91.89533
 20
69.117982
 30
0.0
 40
0.0
 41
0.0
  0
VERTEX
  5
98
100
AcDbEntity
  8
1
  6
CONTINUOUS
 62
     5
 48
2.094053
100
AcDbVertex
100
AcDb2dVertex
 10
91.769645
 20
69.170067
 30
0.0
 40
0.0
 41
0.0
  0
VERTEX
  5
99
100
AcDbEntity
  8
1
  6
CONTINUOUS
 62
     5
 48
2.094053
100
AcDbVertex
100
AcDb2dVertex
 10
91.643346
 20
69.220543
 30
0.0
 40
0.0
 41
0.0
  0
VERTEX
  5
9A
100
AcDbEntity
  8
1
  6
CONTINUOUS
 62
     5
 48
2.094053
100
AcDbVertex
100
AcDb2dVertex
 10
91.516379
 20
69.269244
 30
0.0
 40
0.0
 41
0.0
  0
VERTEX
  5
9B
100
AcDbEntity
  8
1
  6
CONTINUOUS
 62
     5
 48
2.094053
100
AcDbVertex
100
AcDb2dVertex
 10
91.39289
 20
69.314574
 30
0.0
 40
0.0
 41
0.0
  0
VERTEX
  5
9C
100
AcDbEntity
  8
1
  6
CONTINUOUS
 62
     5
 48
2.094053
100
AcDbVertex
100
AcDb2dVertex
 10
91.268807
 20
69.358303
 30
0.0
 40
0.0
 41
0.0
  0
VERTEX
  5
9D
100
AcDbEntity
  8
1
  6
CONTINUOUS
 62
     5
 48
2.094053
100
AcDbVertex
100
AcDb2dVertex
 10
91.144212
 20
69.40065
 30
0.0
 40
0.0
 41
0.0
  0
VERTEX
  5
9E
100
AcDbEntity
  8
1
  6
CONTINUOUS
 62
     5
 48
2.094053
100
AcDbVertex
100
AcDb2dVertex
 10
91.019186
 20
69.441831
 30
0.0
 40
0.0
 41
0.0
  0
VERTEX
  5
9F
100
AcDbEntity
  8
1
  6
CONTINUOUS
 62
     5
 48
2.094053
100
AcDbVertex
100
AcDb2dVertex
 10
90.893809
 20
69.482064
 30
0.0
 40
0.0
 41
0.0
  0
VERTEX
  5
A0
100
AcDbEntity
  8
1
  6
CONTINUOUS
 62
     5
 48
2.094053
100
AcDbVertex
100
AcDb2dVertex
 10
90.768161
 20
69.521566
 30
0.0
 40
0.0
 41
0.0
  0
VERTEX
  5
A1
100
AcDbEntity
  8
1
  6
CONTINUOUS
 62
     5
 48
2.094053
100
AcDbVertex
100
AcDb2dVertex
 10
90.642325
 20
69.560554
 30
0.0
 40
0.0
 41
0.0
  0
VERTEX
  5
A2
100
AcDbEntity
  8
1
  6
CONTINUOUS
 62
     5
 48
2.094053
100
AcDbVertex
100
AcDb2dVertex
 10
90.516379
 20
69.599244
 30
0.0
 40
0.0
 41
0.0
  0
VERTEX
  5
A3
100
AcDbEntity
  8
1
  6
CONTINUOUS
 62
     5
 48
2.094053
100
AcDbVertex
100
AcDb2dVertex
 10
90.392127
 20
69.637242
 30
0.0
 40
0.0
 41
0.0
  0
VERTEX
  5
A4
100
AcDbEntity
  8
1
  6
CONTINUOUS
 62
     5
 48
2.094053
100
AcDbVertex
100
AcDb2dVertex
 10
90.267785
 20
69.674903
 30
0.0
 40
0.0
 41
0.0
  0
VERTEX
  5
A5
100
AcDbEntity
  8
1
  6
CONTINUOUS
 62
     5
 48
2.094053
100
AcDbVertex
100
AcDb2dVertex
 10
90.143292
 20
69.711966
 30
0.0
 40
0.0
 41
0.0
  0
VERTEX
  5
A6
100
AcDbEntity
  8
1
  6
CONTINUOUS
 62
     5
 48
2.094053
100
AcDbVertex
100
AcDb2dVertex
 10
90.018585
 20
69.748173
 30
0.0
 40
0.0
 41
0.0
  0
VERTEX
  5
A7
100
AcDbEntity
  8
1
  6
CONTINUOUS
 62
     5
 48
2.094053
100
AcDbVertex
100
AcDb2dVertex
 10
89.893603
 20
69.783264
 30
0.0
 40
0.0
 41
0.0
  0
VERTEX
  5
A8
100
AcDbEntity
  8
1
  6
CONTINUOUS
 62
     5
 48
2.094053
100
AcDbVertex
100
AcDb2dVertex
 10
89.768282
 20
69.816979
 30
0.0
 40
0.0
 41
0.0
  0
VERTEX
  5
A9
100
AcDbEntity
  8
1
  6
CONTINUOUS
 62
     5
 48
2.094053
100
AcDbVertex
100
AcDb2dVertex
 10
89.642562
 20
69.849059
 30
0.0
 40
0.0
 41
0.0
  0
VERTEX
  5
AA
100
AcDbEntity
  8
1
  6
CONTINUOUS
 62
     5
 48
2.094053
100
AcDbVertex
100
AcDb2dVertex
 10
89.516379
 20
69.879244
 30
0.0
 40
0.0
 41
0.0
  0
VERTEX
  5
AB
100
AcDbEntity
  8
1
  6
CONTINUOUS
 62
     5
 48
2.094053
100
AcDbVertex
100
AcDb2dVertex
 10
89.392639
 20
69.906707
 30
0.0
 40
0.0
 41
0.0
  0
VERTEX
  5
AC
100
AcDbEntity
  8
1
  6
CONTINUOUS
 62
     5
 48
2.094053
100
AcDbVertex
100
AcDb2dVertex
 10
89.268445
 20
69.932207
 30
0.0
 40
0.0
 41
0.0
  0
VERTEX
  5
AD
100
AcDbEntity
  8
1
  6
CONTINUOUS
 62
     5
 48
2.094053
100
AcDbVertex
100
AcDb2dVertex
 10
89.143845
 20
69.955838
 30
0.0
 40
0.0
 41
0.0
  0
VERTEX
  5
AE
100
AcDbEntity
  8
1
  6
CONTINUOUS
 62
     5
 48
2.094053
100
AcDbVertex
100
AcDb2dVertex
 10
89.018885
 20
69.977695
 30
0.0
 40
0.0
 41
0.0
  0
VERTEX
  5
AF
100
AcDbEntity
  8
1
  6
CONTINUOUS
 62
     5
 48
2.094053
100
AcDbVertex
100
AcDb2dVertex
 10
88.893611
 20
69.997871
 30
0.0
 40
0.0
 41
0.0
  0
VERTEX
  5
B0
100
AcDbEntity
  8
1
  6
CONTINUOUS
 62
     5
 48
2.094053
100
AcDbVertex
100
AcDb2dVertex
 10
88.768072
 20
70.016458
 30
0.0
 40
0.0
 41
0.0
  0
VERTEX
  5
B1
100
AcDbEntity
  8
1
  6
CONTINUOUS
 62
     5
 48
2.094053
100
AcDbVertex
100
AcDb2dVertex
 10
88.642312
 20
70.033552
 30
0.0
 40
0.0
 41
0.0
  0
VERTEX
  5
B2
100
AcDbEntity
  8
1
  6
CONTINUOUS
 62
     5
 48
2.094053
100
AcDbVertex
100
AcDb2dVertex
 10
88.516379
 20
70.049244
 30
0.0
 40
0.0
 41
0.0
  0
VERTEX
  5
B3
100
AcDbEntity
  8
1
  6
CONTINUOUS
 62
     5
 48
2.094053
100
AcDbVertex
100
AcDb2dVertex
 10
88.391701
 20
70.063468
 30
0.0
 40
0.0
 41
0.0
  0
VERTEX
  5
B4
100
AcDbEntity
  8
1
  6
CONTINUOUS
 62
     5
 48
2.094053
100
AcDbVertex
100
AcDb2dVertex
 10
88.26691
 20
70.076436
 30
0.0
 40
0.0
 41
0.0
  0
VERTEX
  5
B5
100
AcDbEntity
  8
1
  6
CONTINUOUS
 62
     5
 48
2.094053
100
AcDbVertex
100
AcDb2dVertex
 10
88.142017
 20
70.088174
 30
0.0
 40
0.0
 41
0.0
  0
VERTEX
  5
B6
100
AcDbEntity
  8
1
  6
CONTINUOUS
 62
     5
 48
2.094053
100
AcDbVertex
100
AcDb2dVertex
 10
88.017031
 20
70.098706
 30
0.0
 40
0.0
 41
0.0
  0
VERTEX
  5
B7
100
AcDbEntity
  8
1
  6
CONTINUOUS
 62
     5
 48
2.094053
100
AcDbVertex
100
AcDb2dVertex
 10
87.891964
 20
70.108055
 30
0.0
 40
0.0
 41
0.0
  0
VERTEX
  5
B8
100
AcDbEntity
  8
1
  6
CONTINUOUS
 62
     5
 48
2.094053
100
AcDbVertex
100
AcDb2dVertex
 10
87.766826
 20
70.116245
 30
0.0
 40
0.0
 41
0.0
  0
VERTEX
  5
B9
100
AcDbEntity
  8
1
  6
CONTINUOUS
 62
     5
 48
2.094053
100
AcDbVertex
100
AcDb2dVertex
 10
87.641628
 20
70.1233
 30
0.0
 40
0.0
 41
0.0
  0
VERTEX
  5
BA
100
AcDbEntity
  8
1
  6
CONTINUOUS
 62
     5
 48
2.094053
100
AcDbVertex
100
AcDb2dVertex
 10
87.516379
 20
70.129244
 30
0.0
 40
0.0
 41
0.0
  0
VERTEX
  5
BB
100
AcDbEntity
  8
1
  6
CONTINUOUS
 62
     5
 48
2.094053
100
AcDbVertex
100
AcDb2dVertex
 10
87.391465
 20
70.134108
 30
0.0
 40
0.0
 41
0.0
  0
VERTEX
  5
BC
100
AcDbEntity
  8
1
  6
CONTINUOUS
 62
     5
 48
2.094053
100
AcDbVertex
100
AcDb2dVertex
 10
87.266516
 20
70.138026
 30
0.0
 40
0.0
 41
0.0
  0
VERTEX
  5
BD
100
AcDbEntity
  8
1
  6
CONTINUOUS
 62
     5
 48
2.094053
100
AcDbVertex
100
AcDb2dVertex
 10
87.141538
 20
70.141133
 30
0.0
 40
0.0
 41
0.0
  0
VERTEX
  5
BE
100
AcDbEntity
  8
1
  6
CONTINUOUS
 62
     5
 48
2.094053
100
AcDbVertex
100
AcDb2dVertex
 10
87.016536
 20
70.143566
 30
0.0
 40
0.0
 41
0.0
  0
VERTEX
  5
BF
100
AcDbEntity
  8
1
  6
CONTINUOUS
 62
     5
 48
2.094053
100
AcDbVertex
100
AcDb2dVertex
 10
86.891514
 20
70.145458
 30
0.0
 40
0.0
 41
0.0
  0
VERTEX
  5
C0
100
AcDbEntity
  8
1
  6
CONTINUOUS
 62
     5
 48
2.094053
100
AcDbVertex
100
AcDb2dVertex
 10
86.766477
 20
70.146945
 30
0.0
 40
0.0
 41
0.0
  0
VERTEX
  5
C1
100
AcDbEntity
  8
1
  6
CONTINUOUS
 62
     5
 48
2.094053
100
AcDbVertex
100
AcDb2dVertex
 10
86.641431
 20
70.148162
 30
0.0
 40
0.0
 41
0.0
  0
VERTEX
  5
C2
100
AcDbEntity
  8
1
  6
CONTINUOUS
 62
     5
 48
2.094053
100
AcDbVertex
100
AcDb2dVertex
 10
86.516379
 20
70.149244
 30
0.0
 40
0.0
 41
0.0
  0
SEQEND
  5
C3
100
AcDbEntity
  8
0
  0
POLYLINE
  5
C4
100
AcDbEntity
  8
1
  6
CONTINUOUS
 62
     5
 48
0.297755
100
AcDb2dPolyline
 66
     1
 10
0.0
 20
0.0
 30
0.0
 70
   128
  0
VERTEX
  5
C5
100
AcDbEntity
  8
1
  6
CONTINUOUS
 62
     5
 48
0.297755
100
AcDbVertex
100
AcDb2dVertex
 10
98.374032
 20
61.845406
 30
0.0
 40
0.0
 41
0.0
  0
VERTEX
  5
C6
100
AcDbEntity
  8
1
  6
CONTINUOUS
 62
     5
 48
0.297755
100
AcDbVertex
100
AcDb2dVertex
 10
98.416379
 20
61.649244
 30
0.0
 40
0.0
 41
0.0
  0
SEQEND
  5
C7
100
AcDbEntity
  8
0
  0
POLYLINE
  5
C8
100
AcDbEntity
  8
1
  6
CONTINUOUS
 62
     5
 48
0.297755
100
AcDb2dPolyline
 66
     1
 10
0.0
 20
0.0
 30
0.0
 70
   128
  0
VERTEX
  5
C9
100
AcDbEntity
  8
1
  6
CONTINUOUS
 62
     5
 48
0.297755
100
AcDbVertex
100
AcDb2dVertex
 10
98.416379
 20
61.649244
 30
0.0
 40
0.0
 41
0.0
  0
VERTEX
  5
CA
100
AcDbEntity
  8
1
  6
CONTINUOUS
 62
     5
 48
0.297755
100
AcDbVertex
100
AcDb2dVertex
 10
97.57241
 20
61.561409
 30
0.0
 40
0.0
 41
0.0
  0
SEQEND
  5
CB
100
AcDbEntity
  8
0
  0
POLYLINE
  5
CC
100
AcDbEntity
  8
1
  6
CONTINUOUS
 62
     7
 48
2.0
100
AcDb2dPolyline
 66
     1
 10
0.0
 20
0.0
 30
0.0
 70
   128
  0
VERTEX
  5
CD
100
AcDbEntity
  8
1
  6
CONTINUOUS
 62
     7
 48
2.0
100
AcDbVertex
100
AcDb2dVertex
 10
87.516379
 20
71.131945
 30
0.0
 40
0.0
 41
0.0
  0
VERTEX
  5
CE
100
AcDbEntity
  8
1
  6
CONTINUOUS
 62
     7
 48
2.0
100
AcDbVertex
100
AcDb2dVertex
 10
87.516379
 20
70.129244
 30
0.0
 40
0.0
 41
0.0
  0
SEQEND
  5
CF
100
AcDbEntity
  8
0
  0
POLYLINE
  5
D0
100
AcDbEntity
  8
1
  6
CONTINUOUS
 62
     7
 48
2.0
100
AcDb2dPolyline
 66
     1
 10
0.0
 20
0.0
 30
0.0
 70
   128
  0
VERTEX
  5
D1
100
AcDbEntity
  8
1
  6
CONTINUOUS
 62
     7
 48
2.0
100
AcDbVertex
100
AcDb2dVertex
 10
88.516379
 20
71.05573
 30
0.0
 40
0.0
 41
0.0
  0
VERTEX
  5
D2
100
AcDbEntity
  8
1
  6
CONTINUOUS
 62
     7
 48
2.0
100
AcDbVertex
100
AcDb2dVertex
 10
88.516379
 20
70.049244
 30
0.0
 40
0.0
 41
0.0
  0
SEQEND
  5
D3
100
AcDbEntity
  8
0
  0
POLYLINE
  5
D4
100
AcDbEntity
  8
1
  6
CONTINUOUS
 62
     7
 48
2.0
100
AcDb2dPolyline
 66
     1
 10
0.0
 20
0.0
 30
0.0
 70
   128
  0
VERTEX
  5
D5
100
AcDbEntity
  8
1
  6
CONTINUOUS
 62
     7
 48
2.0
100
AcDbVertex
100
AcDb2dVertex
 10
89.516379
 20
70.903576
 30
0.0
 40
0.0
 41
0.0
  0
VERTEX
  5
D6
100
AcDbEntity
  8
1
  6
CONTINUOUS
 62
     7
 48
2.0
100
AcDbVertex
100
AcDb2dVertex
 10
89.516379
 20
69.879244
 30
0.0
 40
0.0
 41
0.0
  0
SEQEND
  5
D7
100
AcDbEntity
  8
0
  0
POLYLINE
  5
D8
100
AcDbEntity
  8
1
  6
CONTINUOUS
 62
     7
 48
2.0
100
AcDb2dPolyline
 66
     1
 10
0.0
 20
0.0
 30
0.0
 70
   128
  0
VERTEX
  5
D9
100
AcDbEntity
  8
1
  6
CONTINUOUS
 62
     7
 48
2.0
100
AcDbVertex
100
AcDb2dVertex
 10
90.516379
 20
70.64447
 30
0.0
 40
0.0
 41
0.0
  0
VERTEX
  5
DA
100
AcDbEntity
  8
1
  6
CONTINUOUS
 62
     7
 48
2.0
100
AcDbVertex
100
AcDb2dVertex
 10
90.516379
 20
69.599244
 30
0.0
 40
0.0
 41
0.0
  0
SEQEND
  5
DB
100
AcDbEntity
  8
0
  0
POLYLINE
  5
DC
100
AcDbEntity
  8
1
  6
CONTINUOUS
 62
     7
 48
2.0
100
AcDb2dPolyline
 66
     1
 10
0.0
 20
0.0
 30
0.0
 70
   128
  0
VERTEX
  5
DD
100
AcDbEntity
  8
1
  6
CONTINUOUS
 62
     7
 48
2.0
100
AcDbVertex
100
AcDb2dVertex
 10
91.516379
 20
70.334485
 30
0.0
 40
0.0
 41
0.0
  0
VERTEX
  5
DE
100
AcDbEntity
  8
1
  6
CONTINUOUS
 62
     7
 48
2.0
100
AcDbVertex
100
AcDb2dVertex
 10
91.516379
 20
69.269244
 30
0.0
 40
0.0
 41
0.0
  0
SEQEND
  5
DF
100
AcDbEntity
  8
0
  0
POLYLINE
  5
E0
100
AcDbEntity
  8
1
  6
CONTINUOUS
 62
     7
 48
2.0
100
AcDb2dPolyline
 66
     1
 10
0.0
 20
0.0
 30
0.0
 70
   128
  0
VERTEX
  5
E1
100
AcDbEntity
  8
1
  6
CONTINUOUS
 62
     7
 48
2.0
100
AcDbVertex
100
AcDb2dVertex
 10
92.516379
 20
69.939159
 30
0.0
 40
0.0
 41
0.0
  0
VERTEX
  5
E2
100
AcDbEntity
  8
1
  6
CONTINUOUS
 62
     7
 48
2.0
100
AcDbVertex
100
AcDb2dVertex
 10
92.516379
 20
68.839244
 30
0.0
 40
0.0
 41
0.0
  0
SEQEND
  5
E3
100
AcDbEntity
  8
0
  0
POLYLINE
  5
E4
100
AcDbEntity
  8
1
  6
CONTINUOUS
 62
     7
 48
2.0
100
AcDb2dPolyline
 66
     1
 10
0.0
 20
0.0
 30
0.0
 70
   128
  0
VERTEX
  5
E5
100
AcDbEntity
  8
1
  6
CONTINUOUS
 62
     7
 48
2.0
100
AcDbVertex
100
AcDb2dVertex
 10
93.516379
 20
69.463552
 30
0.0
 40
0.0
 41
0.0
  0
VERTEX
  5
E6
100
AcDbEntity
  8
1
  6
CONTINUOUS
 62
     7
 48
2.0
100
AcDbVertex
100
AcDb2dVertex
 10
93.516379
 20
68.339836
 30
0.0
 40
0.0
 41
0.0
  0
SEQEND
  5
E7
100
AcDbEntity
  8
0
  0
POLYLINE
  5
E8
100
AcDbEntity
  8
1
  6
CONTINUOUS
 62
     7
 48
2.0
100
AcDb2dPolyline
 66
     1
 10
0.0
 20
0.0
 30
0.0
 70
   128
  0
VERTEX
  5
E9
100
AcDbEntity
  8
1
  6
CONTINUOUS
 62
     7
 48
2.0
100
AcDbVertex
100
AcDb2dVertex
 10
94.516379
 20
68.894651
 30
0.0
 40
0.0
 41
0.0
  0
VERTEX
  5
EA
100
AcDbEntity
  8
1
  6
CONTINUOUS
 62
     7
 48
2.0
100
AcDbVertex
100
AcDb2dVertex
 10
94.516379
 20
67.689244
 30
0.0
 40
0.0
 41
0.0
  0
SEQEND
  5
EB
100
AcDbEntity
  8
0
  0
POLYLINE
  5
EC
100
AcDbEntity
  8
1
  6
CONTINUOUS
 62
     7
 48
2.0
100
AcDb2dPolyline
 66
     1
 10
0.0
 20
0.0
 30
0.0
 70
   128
  0
VERTEX
  5
ED
100
AcDbEntity
  8
1
  6
CONTINUOUS
 62
     7
 48
2.0
100
AcDbVertex
100
AcDb2dVertex
 10
95.516379
 20
68.190967
 30
0.0
 40
0.0
 41
0.0
  0
VERTEX
  5
EE
100
AcDbEntity
  8
1
  6
CONTINUOUS
 62
     7
 48
2.0
100
AcDbVertex
100
AcDb2dVertex
 10
95.516379
 20
66.879244
 30
0.0
 40
0.0
 41
0.0
  0
SEQEND
  5
EF
100
AcDbEntity
  8
0
  0
POLYLINE
  5
F0
100
AcDbEntity
  8
1
  6
CONTINUOUS
 62
     7
 48
2.0
100
AcDb2dPolyline
 66
     1
 10
0.0
 20
0.0
 30
0.0
 70
   128
  0
VERTEX
  5
F1
100
AcDbEntity
  8
1
  6
CONTINUOUS
 62
     7
 48
2.0
100
AcDbVertex
100
AcDb2dVertex
 10
96.516379
 20
67.298707
 30
0.0
 40
0.0
 41
0.0
  0
VERTEX
  5
F2
100
AcDbEntity
  8
1
  6
CONTINUOUS
 62
     7
 48
2.0
100
AcDbVertex
100
AcDb2dVertex
 10
96.516379
 20
65.789244
 30
0.0
 40
0.0
 41
0.0
  0
SEQEND
  5
F3
100
AcDbEntity
  8
0
  0
POLYLINE
  5
F4
100
AcDbEntity
  8
1
  6
CONTINUOUS
 62
     7
 48
2.0
100
AcDb2dPolyline
 66
     1
 10
0.0
 20
0.0
 30
0.0
 70
   128
  0
VERTEX
  5
F5
100
AcDbEntity
  8
1
  6
CONTINUOUS
 62
     7
 48
2.0
100
AcDbVertex
100
AcDb2dVertex
 10
97.516379
 20
65.850483
 30
0.0
 40
0.0
 41
0.0
  0
VERTEX
  5
F6
100
AcDbEntity
  8
1
  6
CONTINUOUS
 62
     7
 48
2.0
100
AcDbVertex
100
AcDb2dVertex
 10
97.516379
 20
64.319244
 30
0.0
 40
0.0
 41
0.0
  0
SEQEND
  5
F7
100
AcDbEntity
  8
0
  0
TEXT
  5
F8
100
AcDbEntity
  8
10
 62
     7
 48
0.0
100
AcDbText
 10
87.42318
 20
71.22035
 30
0.0
 40
0.25
  1
1
 72
     5
 11
87.617315
 21
71.22035
 31
0.0
210
0.0
220
0.0
230
1.0
100
AcDbText
  0
TEXT
  5
F9
100
AcDbEntity
  8
10
 62
     7
 48
0.0
100
AcDbText
 10
88.466282
 20
71.17971
 30
0.0
 40
0.25
  1
2
 72
     5
 11
88.660416
 21
71.17971
 31
0.0
210
0.0
220
0.0
230
1.0
100
AcDbText
  0
TEXT
  5
FA
100
AcDbEntity
  8
10
 62
     7
 48
0.0
100
AcDbText
 10
89.455196
 20
71.017149
 30
0.0
 40
0.25
  1
3
 72
     5
 11
89.64933
 21
71.017149
 31
0.0
210
0.0
220
0.0
230
1.0
100
AcDbText
  0
TEXT
  5
FB
100
AcDbEntity
  8
10
 62
     7
 48
0.0
100
AcDbText
 10
90.44411
 20
70.746213
 30
0.0
 40
0.25
  1
4
 72
     5
 11
90.638244
 21
70.746213
 31
0.0
210
0.0
220
0.0
230
1.0
100
AcDbText
  0
TEXT
  5
FC
100
AcDbEntity
  8
10
 62
     7
 48
0.0
100
AcDbText
 10
91.44657
 20
70.421091
 30
0.0
 40
0.25
  1
5
 72
     5
 11
91.640704
 21
70.421091
 31
0.0
210
0.0
220
0.0
230
1.0
100
AcDbText
  0
TEXT
  5
FD
100
AcDbEntity
  8
10
 62
     7
 48
0.0
100
AcDbText
 10
92.476125
 20
70.055328
 30
0.0
 40
0.25
  1
6
 72
     5
 11
92.670259
 21
70.055328
 31
0.0
210
0.0
220
0.0
230
1.0
100
AcDbText
  0
TEXT
  5
FE
100
AcDbEntity
  8
10
 62
     7
 48
0.0
100
AcDbText
 10
93.437945
 20
69.581191
 30
0.0
 40
0.25
  1
7
 72
     5
 11
93.632079
 21
69.581191
 31
0.0
210
0.0
220
0.0
230
1.0
100
AcDbText
  0
TEXT
  5
FF
100
AcDbEntity
  8
10
 62
     7
 48
0.0
100
AcDbText
 10
94.440406
 20
68.985134
 30
0.0
 40
0.25
  1
8
 72
     5
 11
94.63454
 21
68.985134
 31
0.0
210
0.0
220
0.0
230
1.0
100
AcDbText
  0
TEXT
  5
100
100
AcDbEntity
  8
10
 62
     7
 48
0.0
100
AcDbText
 10
95.456413
 20
68.280702
 30
0.0
 40
0.25
  1
9
 72
     5
 11
95.650548
 21
68.280702
 31
0.0
210
0.0
220
0.0
230
1.0
100
AcDbText
  0
TEXT
  5
101
100
AcDbEntity
  8
10
 62
     7
 48
0.0
100
AcDbText
 10
96.39114
 20
67.427256
 30
0.0
 40
0.25
  1
10
 72
     5
 11
96.779409
 21
67.427256
 31
0.0
210
0.0
220
0.0
230
1.0
100
AcDbText
  0
TEXT
  5
102
100
AcDbEntity
  8
10
 62
     7
 48
0.0
100
AcDbText
 10
97.311611
 20
65.983529
 30
0.0
 40
0.25
  1
11
 72
     5
 11
97.699879
 21
65.983529
 31
0.0
210
0.0
220
0.0
230
1.0
100
AcDbText
  0
POLYLINE
  5
103
100
AcDbEntity
  8
1
  6
CONTINUOUS
 62
     7
 48
2.0
100
AcDb2dPolyline
 66
     1
 10
0.0
 20
0.0
 30
0.0
 70
   128
  0
VERTEX
  5
104
100
AcDbEntity
  8
1
  6
CONTINUOUS
 62
     7
 48
2.0
100
AcDbVertex
100
AcDb2dVertex
 10
98.016379
 20
65.188152
 30
0.0
 40
0.0
 41
0.0
  0
VERTEX
  5
105
100
AcDbEntity
  8
1
  6
CONTINUOUS
 62
     7
 48
2.0
100
AcDbVertex
100
AcDb2dVertex
 10
98.016379
 20
63.199244
 30
0.0
 40
0.0
 41
0.0
  0
SEQEND
  5
106
100
AcDbEntity
  8
0
  0
POLYLINE
  5
107
100
AcDbEntity
  8
1
  6
CONTINUOUS
 62
     7
 48
2.0
100
AcDb2dPolyline
 66
     1
 10
0.0
 20
0.0
 30
0.0
 70
   128
  0
VERTEX
  5
108
100
AcDbEntity
  8
1
  6
CONTINUOUS
 62
     7
 48
2.0
100
AcDbVertex
100
AcDb2dVertex
 10
98.416379
 20
63.610632
 30
0.0
 40
0.0
 41
0.0
  0
VERTEX
  5
109
100
AcDbEntity
  8
1
  6
CONTINUOUS
 62
     7
 48
2.0
100
AcDbVertex
100
AcDb2dVertex
 10
98.416379
 20
61.649244
 30
0.0
 40
0.0
 41
0.0
  0
SEQEND
  5
10A
100
AcDbEntity
  8
0
  0
TEXT
  5
10B
100
AcDbEntity
  8
10
 62
     7
 48
0.0
100
AcDbText
 10
97.649956
 20
65.243544
 30
0.0
 40
0.25
  1
11.5
 72
     5
 11
98.329425
 21
65.243544
 31
0.0
210
0.0
220
0.0
230
1.0
100
AcDbText
  0
TEXT
  5
10C
100
AcDbEntity
  8
10
 62
     7
 48
0.0
100
AcDbText
 10
98.076643
 20
63.696909
 30
0.0
 40
0.25
  1
11.9
 72
     5
 11
98.756113
 21
63.696909
 31
0.0
210
0.0
220
0.0
230
1.0
100
AcDbText
  0
POLYLINE
  5
10D
100
AcDbEntity
  8
1
  6
CONTINUOUS
 62
     7
 48
2.0
100
AcDb2dPolyline
 66
     1
 10
0.0
 20
0.0
 30
0.0
 70
   128
  0
VERTEX
  5
10E
100
AcDbEntity
  8
1
  6
CONTINUOUS
 62
     7
 48
2.0
100
AcDbVertex
100
AcDb2dVertex
 10
97.016379
 20
66.658714
 30
0.0
 40
0.0
 41
0.0
  0
VERTEX
  5
10F
100
AcDbEntity
  8
1
  6
CONTINUOUS
 62
     7
 48
2.0
100
AcDbVertex
100
AcDb2dVertex
 10
97.016379
 20
65.129244
 30
0.0
 40
0.0
 41
0.0
  0
SEQEND
  5
110
100
AcDbEntity
  8
0
  0
TEXT
  5
111
100
AcDbEntity
  8
10
 62
     7
 48
0.0
100
AcDbText
 10
96.688528
 20
66.78429
 30
0.0
 40
0.25
  1
10.5
 72
     5
 11
97.367997
 21
66.78429
 31
0.0
210
0.0
220
0.0
230
1.0
100
AcDbText
  0
POLYLINE
  5
112
100
AcDbEntity
  8
1
  6
CONTINUOUS
 62
     5
 48
2.094053
100
AcDb2dPolyline
 66
     1
 10
0.0
 20
0.0
 30
0.0
 70
   128
  0
VERTEX
  5
113
100
AcDbEntity
  8
1
  6
CONTINUOUS
 62
     5
 48
2.094053
100
AcDbVertex
100
AcDb2dVertex
 10
74.658727
 20
61.845406
 30
0.0
 40
0.0
 41
0.0
  0
VERTEX
  5
114
100
AcDbEntity
  8
1
  6
CONTINUOUS
 62
     5
 48
2.094053
100
AcDbVertex
100
AcDb2dVertex
 10
74.701803
 20
62.041337
 30
0.0
 40
0.0
 41
0.0
  0
VERTEX
  5
115
100
AcDbEntity
  8
1
  6
CONTINUOUS
 62
     5
 48
2.094053
100
AcDbVertex
100
AcDb2dVertex
 10
74.746336
 20
62.23681
 30
0.0
 40
0.0
 41
0.0
  0
VERTEX
  5
116
100
AcDbEntity
  8
1
  6
CONTINUOUS
 62
     5
 48
2.094053
100
AcDbVertex
100
AcDb2dVertex
 10
74.793056
 20
62.431593
 30
0.0
 40
0.0
 41
0.0
  0
VERTEX
  5
117
100
AcDbEntity
  8
1
  6
CONTINUOUS
 62
     5
 48
2.094053
100
AcDbVertex
100
AcDb2dVertex
 10
74.842692
 20
62.625458
 30
0.0
 40
0.0
 41
0.0
  0
VERTEX
  5
118
100
AcDbEntity
  8
1
  6
CONTINUOUS
 62
     5
 48
2.094053
100
AcDbVertex
100
AcDb2dVertex
 10
74.895972
 20
62.818174
 30
0.0
 40
0.0
 41
0.0
  0
VERTEX
  5
119
100
AcDbEntity
  8
1
  6
CONTINUOUS
 62
     5
 48
2.094053
100
AcDbVertex
100
AcDb2dVertex
 10
74.953625
 20
63.009513
 30
0.0
 40
0.0
 41
0.0
  0
VERTEX
  5
11A
100
AcDbEntity
  8
1
  6
CONTINUOUS
 62
     5
 48
2.094053
100
AcDbVertex
100
AcDb2dVertex
 10
75.016379
 20
63.199244
 30
0.0
 40
0.0
 41
0.0
  0
VERTEX
  5
11B
100
AcDbEntity
  8
1
  6
CONTINUOUS
 62
     5
 48
2.094053
100
AcDbVertex
100
AcDb2dVertex
 10
75.068293
 20
63.343399
 30
0.0
 40
0.0
 41
0.0
  0
VERTEX
  5
11C
100
AcDbEntity
  8
1
  6
CONTINUOUS
 62
     5
 48
2.094053
100
AcDbVertex
100
AcDb2dVertex
 10
75.123497
 20
63.486439
 30
0.0
 40
0.0
 41
0.0
  0
VERTEX
  5
11D
100
AcDbEntity
  8
1
  6
CONTINUOUS
 62
     5
 48
2.094053
100
AcDbVertex
100
AcDb2dVertex
 10
75.181859
 20
63.628329
 30
0.0
 40
0.0
 41
0.0
  0
VERTEX
  5
11E
100
AcDbEntity
  8
1
  6
CONTINUOUS
 62
     5
 48
2.094053
100
AcDbVertex
100
AcDb2dVertex
 10
75.243245
 20
63.769031
 30
0.0
 40
0.0
 41
0.0
  0
VERTEX
  5
11F
100
AcDbEntity
  8
1
  6
CONTINUOUS
 62
     5
 48
2.094053
100
AcDbVertex
100
AcDb2dVertex
 10
75.307523
 20
63.90851
 30
0.0
 40
0.0
 41
0.0
  0
VERTEX
  5
120
100
AcDbEntity
  8
1
  6
CONTINUOUS
 62
     5
 48
2.094053
100
AcDbVertex
100
AcDb2dVertex
 10
75.37456
 20
64.046729
 30
0.0
 40
0.0
 41
0.0
  0
VERTEX
  5
121
100
AcDbEntity
  8
1
  6
CONTINUOUS
 62
     5
 48
2.094053
100
AcDbVertex
100
AcDb2dVertex
 10
75.444223
 20
64.183653
 30
0.0
 40
0.0
 41
0.0
  0
VERTEX
  5
122
100
AcDbEntity
  8
1
  6
CONTINUOUS
 62
     5
 48
2.094053
100
AcDbVertex
100
AcDb2dVertex
 10
75.516379
 20
64.319244
 30
0.0
 40
0.0
 41
0.0
  0
VERTEX
  5
123
100
AcDbEntity
  8
1
  6
CONTINUOUS
 62
     5
 48
2.094053
100
AcDbVertex
100
AcDb2dVertex
 10
75.574021
 20
64.423534
 30
0.0
 40
0.0
 41
0.0
  0
VERTEX
  5
124
100
AcDbEntity
  8
1
  6
CONTINUOUS
 62
     5
 48
2.094053
100
AcDbVertex
100
AcDb2dVertex
 10
75.633073
 20
64.526985
 30
0.0
 40
0.0
 41
0.0
  0
VERTEX
  5
125
100
AcDbEntity
  8
1
  6
CONTINUOUS
 62
     5
 48
2.094053
100
AcDbVertex
100
AcDb2dVertex
 10
75.693524
 20
64.629582
 30
0.0
 40
0.0
 41
0.0
  0
VERTEX
  5
126
100
AcDbEntity
  8
1
  6
CONTINUOUS
 62
     5
 48
2.094053
100
AcDbVertex
100
AcDb2dVertex
 10
75.755363
 20
64.73131
 30
0.0
 40
0.0
 41
0.0
  0
VERTEX
  5
127
100
AcDbEntity
  8
1
  6
CONTINUOUS
 62
     5
 48
2.094053
100
AcDbVertex
100
AcDb2dVertex
 10
75.81858
 20
64.832156
 30
0.0
 40
0.0
 41
0.0
  0
VERTEX
  5
128
100
AcDbEntity
  8
1
  6
CONTINUOUS
 62
     5
 48
2.094053
100
AcDbVertex
100
AcDb2dVertex
 10
75.883162
 20
64.932103
 30
0.0
 40
0.0
 41
0.0
  0
VERTEX
  5
129
100
AcDbEntity
  8
1
  6
CONTINUOUS
 62
     5
 48
2.094053
100
AcDbVertex
100
AcDb2dVertex
 10
75.949099
 20
65.031138
 30
0.0
 40
0.0
 41
0.0
  0
VERTEX
  5
12A
100
AcDbEntity
  8
1
  6
CONTINUOUS
 62
     5
 48
2.094053
100
AcDbVertex
100
AcDb2dVertex
 10
76.016379
 20
65.129244
 30
0.0
 40
0.0
 41
0.0
  0
VERTEX
  5
12B
100
AcDbEntity
  8
1
  6
CONTINUOUS
 62
     5
 48
2.094053
100
AcDbVertex
100
AcDb2dVertex
 10
76.075979
 20
65.213825
 30
0.0
 40
0.0
 41
0.0
  0
VERTEX
  5
12C
100
AcDbEntity
  8
1
  6
CONTINUOUS
 62
     5
 48
2.094053
100
AcDbVertex
100
AcDb2dVertex
 10
76.136527
 20
65.297733
 30
0.0
 40
0.0
 41
0.0
  0
VERTEX
  5
12D
100
AcDbEntity
  8
1
  6
CONTINUOUS
 62
     5
 48
2.094053
100
AcDbVertex
100
AcDb2dVertex
 10
76.197963
 20
65.381006
 30
0.0
 40
0.0
 41
0.0
  0
VERTEX
  5
12E
100
AcDbEntity
  8
1
  6
CONTINUOUS
 62
     5
 48
2.094053
100
AcDbVertex
100
AcDb2dVertex
 10
76.260228
 20
65.463685
 30
0.0
 40
0.0
 41
0.0
  0
VERTEX
  5
12F
100
AcDbEntity
  8
1
  6
CONTINUOUS
 62
     5
 48
2.094053
100
AcDbVertex
100
AcDb2dVertex
 10
76.323262
 20
65.545808
 30
0.0
 40
0.0
 41
0.0
  0
VERTEX
  5
130
100
AcDbEntity
  8
1
  6
CONTINUOUS
 62
     5
 48
2.094053
100
AcDbVertex
100
AcDb2dVertex
 10
76.387005
 20
65.627416
 30
0.0
 40
0.0
 41
0.0
  0
VERTEX
  5
131
100
AcDbEntity
  8
1
  6
CONTINUOUS
 62
     5
 48
2.094053
100
AcDbVertex
100
AcDb2dVertex
 10
76.451398
 20
65.708549
 30
0.0
 40
0.0
 41
0.0
  0
VERTEX
  5
132
100
AcDbEntity
  8
1
  6
CONTINUOUS
 62
     5
 48
2.094053
100
AcDbVertex
100
AcDb2dVertex
 10
76.516379
 20
65.789244
 30
0.0
 40
0.0
 41
0.0
  0
VERTEX
  5
133
100
AcDbEntity
  8
1
  6
CONTINUOUS
 62
     5
 48
2.094053
100
AcDbVertex
100
AcDb2dVertex
 10
76.633831
 20
65.932368
 30
0.0
 40
0.0
 41
0.0
  0
VERTEX
  5
134
100
AcDbEntity
  8
1
  6
CONTINUOUS
 62
     5
 48
2.094053
100
AcDbVertex
100
AcDb2dVertex
 10
76.753128
 20
66.073992
 30
0.0
 40
0.0
 41
0.0
  0
VERTEX
  5
135
100
AcDbEntity
  8
1
  6
CONTINUOUS
 62
     5
 48
2.094053
100
AcDbVertex
100
AcDb2dVertex
 10
76.874427
 20
66.213885
 30
0.0
 40
0.0
 41
0.0
  0
VERTEX
  5
136
100
AcDbEntity
  8
1
  6
CONTINUOUS
 62
     5
 48
2.094053
100
AcDbVertex
100
AcDb2dVertex
 10
76.997883
 20
66.351814
 30
0.0
 40
0.0
 41
0.0
  0
VERTEX
  5
137
100
AcDbEntity
  8
1
  6
CONTINUOUS
 62
     5
 48
2.094053
100
AcDbVertex
100
AcDb2dVertex
 10
77.12365
 20
66.487547
 30
0.0
 40
0.0
 41
0.0
  0
VERTEX
  5
138
100
AcDbEntity
  8
1
  6
CONTINUOUS
 62
     5
 48
2.094053
100
AcDbVertex
100
AcDb2dVertex
 10
77.251885
 20
66.620852
 30
0.0
 40
0.0
 41
0.0
  0
VERTEX
  5
139
100
AcDbEntity
  8
1
  6
CONTINUOUS
 62
     5
 48
2.094053
100
AcDbVertex
100
AcDb2dVertex
 10
77.382743
 20
66.751495
 30
0.0
 40
0.0
 41
0.0
  0
VERTEX
  5
13A
100
AcDbEntity
  8
1
  6
CONTINUOUS
 62
     5
 48
2.094053
100
AcDbVertex
100
AcDb2dVertex
 10
77.516379
 20
66.879244
 30
0.0
 40
0.0
 41
0.0
  0
VERTEX
  5
13B
100
AcDbEntity
  8
1
  6
CONTINUOUS
 62
     5
 48
2.094053
100
AcDbVertex
100
AcDb2dVertex
 10
77.634982
 20
66.987889
 30
0.0
 40
0.0
 41
0.0
  0
VERTEX
  5
13C
100
AcDbEntity
  8
1
  6
CONTINUOUS
 62
     5
 48
2.094053
100
AcDbVertex
100
AcDb2dVertex
 10
77.755674
 20
67.094253
 30
0.0
 40
0.0
 41
0.0
  0
VERTEX
  5
13D
100
AcDbEntity
  8
1
  6
CONTINUOUS
 62
     5
 48
2.094053
100
AcDbVertex
100
AcDb2dVertex
 10
77.878325
 20
67.198419
 30
0.0
 40
0.0
 41
0.0
  0
VERTEX
  5
13E
100
AcDbEntity
  8
1
  6
CONTINUOUS
 62
     5
 48
2.094053
100
AcDbVertex
100
AcDb2dVertex
 10
78.002804
 20
67.300472
 30
0.0
 40
0.0
 41
0.0
  0
VERTEX
  5
13F
100
AcDbEntity
  8
1
  6
CONTINUOUS
 62
     5
 48
2.094053
100
AcDbVertex
100
AcDb2dVertex
 10
78.128979
 20
67.400497
 30
0.0
 40
0.0
 41
0.0
  0
VERTEX
  5
140
100
AcDbEntity
  8
1
  6
CONTINUOUS
 62
     5
 48
2.094053
100
AcDbVertex
100
AcDb2dVertex
 10
78.256721
 20
67.498578
 30
0.0
 40
0.0
 41
0.0
  0
VERTEX
  5
141
100
AcDbEntity
  8
1
  6
CONTINUOUS
 62
     5
 48
2.094053
100
AcDbVertex
100
AcDb2dVertex
 10
78.385898
 20
67.594799
 30
0.0
 40
0.0
 41
0.0
  0
VERTEX
  5
142
100
AcDbEntity
  8
1
  6
CONTINUOUS
 62
     5
 48
2.094053
100
AcDbVertex
100
AcDb2dVertex
 10
78.516379
 20
67.689244
 30
0.0
 40
0.0
 41
0.0
  0
VERTEX
  5
143
100
AcDbEntity
  8
1
  6
CONTINUOUS
 62
     5
 48
2.094053
100
AcDbVertex
100
AcDb2dVertex
 10
78.637821
 20
67.774857
 30
0.0
 40
0.0
 41
0.0
  0
VERTEX
  5
144
100
AcDbEntity
  8
1
  6
CONTINUOUS
 62
     5
 48
2.094053
100
AcDbVertex
100
AcDb2dVertex
 10
78.760268
 20
67.858975
 30
0.0
 40
0.0
 41
0.0
  0
VERTEX
  5
145
100
AcDbEntity
  8
1
  6
CONTINUOUS
 62
     5
 48
2.094053
100
AcDbVertex
100
AcDb2dVertex
 10
78.883725
 20
67.941544
 30
0.0
 40
0.0
 41
0.0
  0
VERTEX
  5
146
100
AcDbEntity
  8
1
  6
CONTINUOUS
 62
     5
 48
2.094053
100
AcDbVertex
100
AcDb2dVertex
 10
79.008199
 20
68.02251
 30
0.0
 40
0.0
 41
0.0
  0
VERTEX
  5
147
100
AcDbEntity
  8
1
  6
CONTINUOUS
 62
     5
 48
2.094053
100
AcDbVertex
100
AcDb2dVertex
 10
79.133696
 20
68.101818
 30
0.0
 40
0.0
 41
0.0
  0
VERTEX
  5
148
100
AcDbEntity
  8
1
  6
CONTINUOUS
 62
     5
 48
2.094053
100
AcDbVertex
100
AcDb2dVertex
 10
79.260221
 20
68.179413
 30
0.0
 40
0.0
 41
0.0
  0
VERTEX
  5
149
100
AcDbEntity
  8
1
  6
CONTINUOUS
 62
     5
 48
2.094053
100
AcDbVertex
100
AcDb2dVertex
 10
79.38778
 20
68.25524
 30
0.0
 40
0.0
 41
0.0
  0
VERTEX
  5
14A
100
AcDbEntity
  8
1
  6
CONTINUOUS
 62
     5
 48
2.094053
100
AcDbVertex
100
AcDb2dVertex
 10
79.516379
 20
68.329244
 30
0.0
 40
0.0
 41
0.0
  0
VERTEX
  5
14B
100
AcDbEntity
  8
1
  6
CONTINUOUS
 62
     5
 48
2.094053
100
AcDbVertex
100
AcDb2dVertex
 10
79.638917
 20
68.397518
 30
0.0
 40
0.0
 41
0.0
  0
VERTEX
  5
14C
100
AcDbEntity
  8
1
  6
CONTINUOUS
 62
     5
 48
2.094053
100
AcDbVertex
100
AcDb2dVertex
 10
79.762312
 20
68.464243
 30
0.0
 40
0.0
 41
0.0
  0
VERTEX
  5
14D
100
AcDbEntity
  8
1
  6
CONTINUOUS
 62
     5
 48
2.094053
100
AcDbVertex
100
AcDb2dVertex
 10
79.886488
 20
68.529546
 30
0.0
 40
0.0
 41
0.0
  0
VERTEX
  5
14E
100
AcDbEntity
  8
1
  6
CONTINUOUS
 62
     5
 48
2.094053
100
AcDbVertex
100
AcDb2dVertex
 10
80.011368
 20
68.593557
 30
0.0
 40
0.0
 41
0.0
  0
VERTEX
  5
14F
100
AcDbEntity
  8
1
  6
CONTINUOUS
 62
     5
 48
2.094053
100
AcDbVertex
100
AcDb2dVertex
 10
80.136874
 20
68.656403
 30
0.0
 40
0.0
 41
0.0
  0
VERTEX
  5
150
100
AcDbEntity
  8
1
  6
CONTINUOUS
 62
     5
 48
2.094053
100
AcDbVertex
100
AcDb2dVertex
 10
80.262929
 20
68.718214
 30
0.0
 40
0.0
 41
0.0
  0
VERTEX
  5
151
100
AcDbEntity
  8
1
  6
CONTINUOUS
 62
     5
 48
2.094053
100
AcDbVertex
100
AcDb2dVertex
 10
80.389457
 20
68.779119
 30
0.0
 40
0.0
 41
0.0
  0
VERTEX
  5
152
100
AcDbEntity
  8
1
  6
CONTINUOUS
 62
     5
 48
2.094053
100
AcDbVertex
100
AcDb2dVertex
 10
80.516379
 20
68.839244
 30
0.0
 40
0.0
 41
0.0
  0
VERTEX
  5
153
100
AcDbEntity
  8
1
  6
CONTINUOUS
 62
     5
 48
2.094053
100
AcDbVertex
100
AcDb2dVertex
 10
80.639781
 20
68.896879
 30
0.0
 40
0.0
 41
0.0
  0
VERTEX
  5
154
100
AcDbEntity
  8
1
  6
CONTINUOUS
 62
     5
 48
2.094053
100
AcDbVertex
100
AcDb2dVertex
 10
80.763535
 20
68.953737
 30
0.0
 40
0.0
 41
0.0
  0
VERTEX
  5
155
100
AcDbEntity
  8
1
  6
CONTINUOUS
 62
     5
 48
2.094053
100
AcDbVertex
100
AcDb2dVertex
 10
80.887692
 20
69.009651
 30
0.0
 40
0.0
 41
0.0
  0
VERTEX
  5
156
100
AcDbEntity
  8
1
  6
CONTINUOUS
 62
     5
 48
2.094053
100
AcDbVertex
100
AcDb2dVertex
 10
81.012306
 20
69.064454
 30
0.0
 40
0.0
 41
0.0
  0
VERTEX
  5
157
100
AcDbEntity
  8
1
  6
CONTINUOUS
 62
     5
 48
2.094053
100
AcDbVertex
100
AcDb2dVertex
 10
81.137429
 20
69.117982
 30
0.0
 40
0.0
 41
0.0
  0
VERTEX
  5
158
100
AcDbEntity
  8
1
  6
CONTINUOUS
 62
     5
 48
2.094053
100
AcDbVertex
100
AcDb2dVertex
 10
81.263114
 20
69.170067
 30
0.0
 40
0.0
 41
0.0
  0
VERTEX
  5
159
100
AcDbEntity
  8
1
  6
CONTINUOUS
 62
     5
 48
2.094053
100
AcDbVertex
100
AcDb2dVertex
 10
81.389413
 20
69.220543
 30
0.0
 40
0.0
 41
0.0
  0
VERTEX
  5
15A
100
AcDbEntity
  8
1
  6
CONTINUOUS
 62
     5
 48
2.094053
100
AcDbVertex
100
AcDb2dVertex
 10
81.516379
 20
69.269244
 30
0.0
 40
0.0
 41
0.0
  0
VERTEX
  5
15B
100
AcDbEntity
  8
1
  6
CONTINUOUS
 62
     5
 48
2.094053
100
AcDbVertex
100
AcDb2dVertex
 10
81.639869
 20
69.314574
 30
0.0
 40
0.0
 41
0.0
  0
VERTEX
  5
15C
100
AcDbEntity
  8
1
  6
CONTINUOUS
 62
     5
 48
2.094053
100
AcDbVertex
100
AcDb2dVertex
 10
81.763952
 20
69.358303
 30
0.0
 40
0.0
 41
0.0
  0
VERTEX
  5
15D
100
AcDbEntity
  8
1
  6
CONTINUOUS
 62
     5
 48
2.094053
100
AcDbVertex
100
AcDb2dVertex
 10
81.888547
 20
69.40065
 30
0.0
 40
0.0
 41
0.0
  0
VERTEX
  5
15E
100
AcDbEntity
  8
1
  6
CONTINUOUS
 62
     5
 48
2.094053
100
AcDbVertex
100
AcDb2dVertex
 10
82.013573
 20
69.441831
 30
0.0
 40
0.0
 41
0.0
  0
VERTEX
  5
15F
100
AcDbEntity
  8
1
  6
CONTINUOUS
 62
     5
 48
2.094053
100
AcDbVertex
100
AcDb2dVertex
 10
82.13895
 20
69.482064
 30
0.0
 40
0.0
 41
0.0
  0
VERTEX
  5
160
100
AcDbEntity
  8
1
  6
CONTINUOUS
 62
     5
 48
2.094053
100
AcDbVertex
100
AcDb2dVertex
 10
82.264598
 20
69.521566
 30
0.0
 40
0.0
 41
0.0
  0
VERTEX
  5
161
100
AcDbEntity
  8
1
  6
CONTINUOUS
 62
     5
 48
2.094053
100
AcDbVertex
100
AcDb2dVertex
 10
82.390434
 20
69.560554
 30
0.0
 40
0.0
 41
0.0
  0
VERTEX
  5
162
100
AcDbEntity
  8
1
  6
CONTINUOUS
 62
     5
 48
2.094053
100
AcDbVertex
100
AcDb2dVertex
 10
82.516379
 20
69.599244
 30
0.0
 40
0.0
 41
0.0
  0
VERTEX
  5
163
100
AcDbEntity
  8
1
  6
CONTINUOUS
 62
     5
 48
2.094053
100
AcDbVertex
100
AcDb2dVertex
 10
82.640632
 20
69.637242
 30
0.0
 40
0.0
 41
0.0
  0
VERTEX
  5
164
100
AcDbEntity
  8
1
  6
CONTINUOUS
 62
     5
 48
2.094053
100
AcDbVertex
100
AcDb2dVertex
 10
82.764974
 20
69.674903
 30
0.0
 40
0.0
 41
0.0
  0
VERTEX
  5
165
100
AcDbEntity
  8
1
  6
CONTINUOUS
 62
     5
 48
2.094053
100
AcDbVertex
100
AcDb2dVertex
 10
82.889467
 20
69.711966
 30
0.0
 40
0.0
 41
0.0
  0
VERTEX
  5
166
100
AcDbEntity
  8
1
  6
CONTINUOUS
 62
     5
 48
2.094053
100
AcDbVertex
100
AcDb2dVertex
 10
83.014174
 20
69.748173
 30
0.0
 40
0.0
 41
0.0
  0
VERTEX
  5
167
100
AcDbEntity
  8
1
  6
CONTINUOUS
 62
     5
 48
2.094053
100
AcDbVertex
100
AcDb2dVertex
 10
83.139156
 20
69.783264
 30
0.0
 40
0.0
 41
0.0
  0
VERTEX
  5
168
100
AcDbEntity
  8
1
  6
CONTINUOUS
 62
     5
 48
2.094053
100
AcDbVertex
100
AcDb2dVertex
 10
83.264477
 20
69.816979
 30
0.0
 40
0.0
 41
0.0
  0
VERTEX
  5
169
100
AcDbEntity
  8
1
  6
CONTINUOUS
 62
     5
 48
2.094053
100
AcDbVertex
100
AcDb2dVertex
 10
83.390197
 20
69.849059
 30
0.0
 40
0.0
 41
0.0
  0
VERTEX
  5
16A
100
AcDbEntity
  8
1
  6
CONTINUOUS
 62
     5
 48
2.094053
100
AcDbVertex
100
AcDb2dVertex
 10
83.516379
 20
69.879244
 30
0.0
 40
0.0
 41
0.0
  0
VERTEX
  5
16B
100
AcDbEntity
  8
1
  6
CONTINUOUS
 62
     5
 48
2.094053
100
AcDbVertex
100
AcDb2dVertex
 10
83.64012
 20
69.906707
 30
0.0
 40
0.0
 41
0.0
  0
VERTEX
  5
16C
100
AcDbEntity
  8
1
  6
CONTINUOUS
 62
     5
 48
2.094053
100
AcDbVertex
100
AcDb2dVertex
 10
83.764314
 20
69.932207
 30
0.0
 40
0.0
 41
0.0
  0
VERTEX
  5
16D
100
AcDbEntity
  8
1
  6
CONTINUOUS
 62
     5
 48
2.094053
100
AcDbVertex
100
AcDb2dVertex
 10
83.888914
 20
69.955838
 30
0.0
 40
0.0
 41
0.0
  0
VERTEX
  5
16E
100
AcDbEntity
  8
1
  6
CONTINUOUS
 62
     5
 48
2.094053
100
AcDbVertex
100
AcDb2dVertex
 10
84.013874
 20
69.977695
 30
0.0
 40
0.0
 41
0.0
  0
VERTEX
  5
16F
100
AcDbEntity
  8
1
  6
CONTINUOUS
 62
     5
 48
2.094053
100
AcDbVertex
100
AcDb2dVertex
 10
84.139148
 20
69.997871
 30
0.0
 40
0.0
 41
0.0
  0
VERTEX
  5
170
100
AcDbEntity
  8
1
  6
CONTINUOUS
 62
     5
 48
2.094053
100
AcDbVertex
100
AcDb2dVertex
 10
84.264687
 20
70.016458
 30
0.0
 40
0.0
 41
0.0
  0
VERTEX
  5
171
100
AcDbEntity
  8
1
  6
CONTINUOUS
 62
     5
 48
2.094053
100
AcDbVertex
100
AcDb2dVertex
 10
84.390447
 20
70.033552
 30
0.0
 40
0.0
 41
0.0
  0
VERTEX
  5
172
100
AcDbEntity
  8
1
  6
CONTINUOUS
 62
     5
 48
2.094053
100
AcDbVertex
100
AcDb2dVertex
 10
84.516379
 20
70.049244
 30
0.0
 40
0.0
 41
0.0
  0
VERTEX
  5
173
100
AcDbEntity
  8
1
  6
CONTINUOUS
 62
     5
 48
2.094053
100
AcDbVertex
100
AcDb2dVertex
 10
84.641058
 20
70.063468
 30
0.0
 40
0.0
 41
0.0
  0
VERTEX
  5
174
100
AcDbEntity
  8
1
  6
CONTINUOUS
 62
     5
 48
2.094053
100
AcDbVertex
100
AcDb2dVertex
 10
84.765849
 20
70.076436
 30
0.0
 40
0.0
 41
0.0
  0
VERTEX
  5
175
100
AcDbEntity
  8
1
  6
CONTINUOUS
 62
     5
 48
2.094053
100
AcDbVertex
100
AcDb2dVertex
 10
84.890742
 20
70.088174
 30
0.0
 40
0.0
 41
0.0
  0
VERTEX
  5
176
100
AcDbEntity
  8
1
  6
CONTINUOUS
 62
     5
 48
2.094053
100
AcDbVertex
100
AcDb2dVertex
 10
85.015728
 20
70.098706
 30
0.0
 40
0.0
 41
0.0
  0
VERTEX
  5
177
100
AcDbEntity
  8
1
  6
CONTINUOUS
 62
     5
 48
2.094053
100
AcDbVertex
100
AcDb2dVertex
 10
85.140795
 20
70.108055
 30
0.0
 40
0.0
 41
0.0
  0
VERTEX
  5
178
100
AcDbEntity
  8
1
  6
CONTINUOUS
 62
     5
 48
2.094053
100
AcDbVertex
100
AcDb2dVertex
 10
85.265933
 20
70.116245
 30
0.0
 40
0.0
 41
0.0
  0
VERTEX
  5
179
100
AcDbEntity
  8
1
  6
CONTINUOUS
 62
     5
 48
2.094053
100
AcDbVertex
100
AcDb2dVertex
 10
85.391131
 20
70.1233
 30
0.0
 40
0.0
 41
0.0
  0
VERTEX
  5
17A
100
AcDbEntity
  8
1
  6
CONTINUOUS
 62
     5
 48
2.094053
100
AcDbVertex
100
AcDb2dVertex
 10
85.516379
 20
70.129244
 30
0.0
 40
0.0
 41
0.0
  0
VERTEX
  5
17B
100
AcDbEntity
  8
1
  6
CONTINUOUS
 62
     5
 48
2.094053
100
AcDbVertex
100
AcDb2dVertex
 10
85.641294
 20
70.134108
 30
0.0
 40
0.0
 41
0.0
  0
VERTEX
  5
17C
100
AcDbEntity
  8
1
  6
CONTINUOUS
 62
     5
 48
2.094053
100
AcDbVertex
100
AcDb2dVertex
 10
85.766243
 20
70.138026
 30
0.0
 40
0.0
 41
0.0
  0
VERTEX
  5
17D
100
AcDbEntity
  8
1
  6
CONTINUOUS
 62
     5
 48
2.094053
100
AcDbVertex
100
AcDb2dVertex
 10
85.891221
 20
70.141133
 30
0.0
 40
0.0
 41
0.0
  0
VERTEX
  5
17E
100
AcDbEntity
  8
1
  6
CONTINUOUS
 62
     5
 48
2.094053
100
AcDbVertex
100
AcDb2dVertex
 10
86.016223
 20
70.143566
 30
0.0
 40
0.0
 41
0.0
  0
VERTEX
  5
17F
100
AcDbEntity
  8
1
  6
CONTINUOUS
 62
     5
 48
2.094053
100
AcDbVertex
100
AcDb2dVertex
 10
86.141245
 20
70.145458
 30
0.0
 40
0.0
 41
0.0
  0
VERTEX
  5
180
100
AcDbEntity
  8
1
  6
CONTINUOUS
 62
     5
 48
2.094053
100
AcDbVertex
100
AcDb2dVertex
 10
86.266282
 20
70.146945
 30
0.0
 40
0.0
 41
0.0
  0
VERTEX
  5
181
100
AcDbEntity
  8
1
  6
CONTINUOUS
 62
     5
 48
2.094053
100
AcDbVertex
100
AcDb2dVertex
 10
86.391328
 20
70.148162
 30
0.0
 40
0.0
 41
0.0
  0
VERTEX
  5
182
100
AcDbEntity
  8
1
  6
CONTINUOUS
 62
     5
 48
2.094053
100
AcDbVertex
100
AcDb2dVertex
 10
86.516379
 20
70.149244
 30
0.0
 40
0.0
 41
0.0
  0
SEQEND
  5
183
100
AcDbEntity
  8
0
  0
POLYLINE
  5
184
100
AcDbEntity
  8
1
  6
CONTINUOUS
 62
     5
 48
2.0
100
AcDb2dPolyline
 66
     1
 10
0.0
 20
0.0
 30
0.0
 70
   128
  0
VERTEX
  5
185
100
AcDbEntity
  8
1
  6
CONTINUOUS
 62
     5
 48
2.0
100
AcDbVertex
100
AcDb2dVertex
 10
74.658727
 20
61.845406
 30
0.0
 40
0.0
 41
0.0
  0
VERTEX
  5
186
100
AcDbEntity
  8
1
  6
CONTINUOUS
 62
     5
 48
2.0
100
AcDbVertex
100
AcDb2dVertex
 10
74.616379
 20
61.649244
 30
0.0
 40
0.0
 41
0.0
  0
SEQEND
  5
187
100
AcDbEntity
  8
0
  0
POLYLINE
  5
188
100
AcDbEntity
  8
6
  6
CONTINUOUS
 62
     7
 48
0.125
100
AcDb2dPolyline
 66
     1
 10
0.0
 20
0.0
 30
0.0
 70
   128
  0
VERTEX
  5
189
100
AcDbEntity
  8
6
  6
CONTINUOUS
 62
     7
 48
0.125
100
AcDbVertex
100
AcDb2dVertex
 10
86.391379
 20
70.149244
 30
0.0
 40
0.0
 41
0.0
  0
VERTEX
  5
18A
100
AcDbEntity
  8
6
  6
CONTINUOUS
 62
     7
 48
0.125
100
AcDbVertex
100
AcDb2dVertex
 10
85.660205
 20
70.149244
 30
0.0
 40
0.0
 41
0.0
  0
SEQEND
  5
18B
100
AcDbEntity
  8
0
  0
POLYLINE
  5
18C
100
AcDbEntity
  8
6
  6
CONTINUOUS
 62
     7
 48
0.125
100
AcDb2dPolyline
 66
     1
 10
0.0
 20
0.0
 30
0.0
 70
   128
  0
VERTEX
  5
18D
100
AcDbEntity
  8
6
  6
CONTINUOUS
 62
     7
 48
0.125
100
AcDbVertex
100
AcDb2dVertex
 10
98.291379
 20
61.649244
 30
0.0
 40
0.0
 41
0.0
  0
VERTEX
  5
18E
100
AcDbEntity
  8
6
  6
CONTINUOUS
 62
     7
 48
0.125
100
AcDbVertex
100
AcDb2dVertex
 10
85.660205
 20
61.649244
 30
0.0
 40
0.0
 41
0.0
  0
SEQEND
  5
18F
100
AcDbEntity
  8
0
  0
TEXT
  5
190
100
AcDbEntity
  8
6
 62
     7
 48
0.0
100
AcDbText
 10
85.542538
 20
65.799244
 30
0.0
 40
0.25
  1
8.5
 72
     5
 11
86.027873
 21
65.799244
 31
0.0
210
0.0
220
0.0
230
1.0
100
AcDbText
  0
TEXT
  5
191
100
AcDbEntity
  8
6
 62
     7
 48
0.0
100
AcDbText
 10
87.176645
 20
65.789244
 30
0.0
 40
0.25
  1
8.48
 72
     5
 11
87.856114
 21
65.789244
 31
0.0
210
0.0
220
0.0
230
1.0
100
AcDbText
  0
POLYLINE
  5
192
100
AcDbEntity
  8
6
  6
CONTINUOUS
 62
     7
 48
0.125
100
AcDb2dPolyline
 66
     1
 10
0.0
 20
0.0
 30
0.0
 70
   128
  0
VERTEX
  5
193
100
AcDbEntity
  8
6
  6
CONTINUOUS
 62
     7
 48
0.125
100
AcDbVertex
100
AcDb2dVertex
 10
98.291379
 20
61.649244
 30
0.0
 40
0.0
 41
0.0
  0
VERTEX
  5
194
100
AcDbEntity
  8
6
  6
CONTINUOUS
 62
     7
 48
0.125
100
AcDbVertex
100
AcDb2dVertex
 10
88.391379
 20
61.649244
 30
0.0
 40
0.0
 41
0.0
  0
SEQEND
  5
195
100
AcDbEntity
  8
0
  0
TEXT
  5
196
100
AcDbEntity
  8
6
 62
     7
 48
0.0
100
AcDbText
 10
88.273712
 20
65.749244
 30
0.0
 40
0.25
  1
8.4
 72
     5
 11
88.759047
 21
65.749244
 31
0.0
210
0.0
220
0.0
230
1.0
100
AcDbText
  0
POLYLINE
  5
197
100
AcDbEntity
  8
6
  6
CONTINUOUS
 62
     7
 48
0.125
100
AcDb2dPolyline
 66
     1
 10
0.0
 20
0.0
 30
0.0
 70
   128
  0
VERTEX
  5
198
100
AcDbEntity
  8
6
  6
CONTINUOUS
 62
     7
 48
0.125
100
AcDbVertex
100
AcDb2dVertex
 10
98.291379
 20
61.649244
 30
0.0
 40
0.0
 41
0.0
  0
VERTEX
  5
199
100
AcDbEntity
  8
6
  6
CONTINUOUS
 62
     7
 48
0.125
100
AcDbVertex
100
AcDb2dVertex
 10
89.391379
 20
61.649244
 30
0.0
 40
0.0
 41
0.0
  0
SEQEND
  5
19A
100
AcDbEntity
  8
0
  0
TEXT
  5
19B
100
AcDbEntity
  8
6
 62
     7
 48
0.0
100
AcDbText
 10
89.176645
 20
65.664244
 30
0.0
 40
0.25
  1
8.23
 72
     5
 11
89.856114
 21
65.664244
 31
0.0
210
0.0
220
0.0
230
1.0
100
AcDbText
  0
TEXT
  5
19C
100
AcDbEntity
  8
6
 62
     7
 48
0.0
100
AcDbText
 10
90.176645
 20
65.524244
 30
0.0
 40
0.25
  1
7.95
 72
     5
 11
90.856114
 21
65.524244
 31
0.0
210
0.0
220
0.0
230
1.0
100
AcDbText
  0
TEXT
  5
19D
100
AcDbEntity
  8
6
 62
     7
 48
0.0
100
AcDbText
 10
91.176645
 20
65.359244
 30
0.0
 40
0.25
  1
7.62
 72
     5
 11
91.856114
 21
65.359244
 31
0.0
210
0.0
220
0.0
230
1.0
100
AcDbText
  0
TEXT
  5
19E
100
AcDbEntity
  8
6
 62
     7
 48
0.0
100
AcDbText
 10
92.176645
 20
65.144244
 30
0.0
 40
0.25
  1
7.19
 72
     5
 11
92.856114
 21
65.144244
 31
0.0
210
0.0
220
0.0
230
1.0
100
AcDbText
  0
TEXT
  5
19F
100
AcDbEntity
  8
6
 62
     7
 48
0.0
100
AcDbText
 10
93.176645
 20
64.889244
 30
0.0
 40
0.25
  1
6.68
 72
     5
 11
93.856114
 21
64.889244
 31
0.0
210
0.0
220
0.0
230
1.0
100
AcDbText
  0
TEXT
  5
1A0
100
AcDbEntity
  8
6
 62
     7
 48
0.0
100
AcDbText
 10
94.176645
 20
64.569244
 30
0.0
 40
0.25
  1
6.04
 72
     5
 11
94.856114
 21
64.569244
 31
0.0
210
0.0
220
0.0
230
1.0
100
AcDbText
  0
TEXT
  5
1A1
100
AcDbEntity
  8
6
 62
     7
 48
0.0
100
AcDbText
 10
95.176645
 20
64.164244
 30
0.0
 40
0.25
  1
5.23
 72
     5
 11
95.856114
 21
64.164244
 31
0.0
210
0.0
220
0.0
230
1.0
100
AcDbText
  0
POLYLINE
  5
1A2
100
AcDbEntity
  8
6
  6
CONTINUOUS
 62
     7
 48
0.125
100
AcDb2dPolyline
 66
     1
 10
0.0
 20
0.0
 30
0.0
 70
   128
  0
VERTEX
  5
1A3
100
AcDbEntity
  8
6
  6
CONTINUOUS
 62
     7
 48
0.125
100
AcDbVertex
100
AcDb2dVertex
 10
98.541379
 20
61.649244
 30
0.0
 40
0.0
 41
0.0
  0
VERTEX
  5
1A4
100
AcDbEntity
  8
6
  6
CONTINUOUS
 62
     7
 48
0.125
100
AcDbVertex
100
AcDb2dVertex
 10
99.151638
 20
61.649244
 30
0.0
 40
0.0
 41
0.0
  0
SEQEND
  5
1A5
100
AcDbEntity
  8
0
  0
POLYLINE
  5
1A6
100
AcDbEntity
  8
6
  6
CONTINUOUS
 62
     7
 48
0.125
100
AcDb2dPolyline
 66
     1
 10
0.0
 20
0.0
 30
0.0
 70
   128
  0
VERTEX
  5
1A7
100
AcDbEntity
  8
6
  6
CONTINUOUS
 62
     7
 48
0.125
100
AcDbVertex
100
AcDb2dVertex
 10
98.328879
 20
60.469244
 30
0.0
 40
0.0
 41
0.0
  0
VERTEX
  5
1A8
100
AcDbEntity
  8
6
  6
CONTINUOUS
 62
     7
 48
0.125
100
AcDbVertex
100
AcDb2dVertex
 10
99.151638
 20
60.469244
 30
0.0
 40
0.0
 41
0.0
  0
SEQEND
  5
1A9
100
AcDbEntity
  8
0
  0
TEXT
  5
1AA
100
AcDbEntity
  8
6
 62
     7
 48
0.0
100
AcDbText
 10
98.686903
 20
60.959244
 30
0.0
 40
0.25
  1
1.18
 72
     5
 11
99.366372
 21
60.959244
 31
0.0
210
0.0
220
0.0
230
1.0
100
AcDbText
  0
POLYLINE
  5
1AB
100
AcDbEntity
  8
6
  6
CONTINUOUS
 62
     7
 48
0.125
100
AcDb2dPolyline
 66
     1
 10
0.0
 20
0.0
 30
0.0
 70
   128
  0
VERTEX
  5
1AC
100
AcDbEntity
  8
6
  6
CONTINUOUS
 62
     7
 48
0.125
100
AcDbVertex
100
AcDb2dVertex
 10
98.453879
 20
60.469244
 30
0.0
 40
0.0
 41
0.0
  0
VERTEX
  5
1AD
100
AcDbEntity
  8
6
  6
CONTINUOUS
 62
     7
 48
0.125
100
AcDbVertex
100
AcDb2dVertex
 10
99.979875
 20
60.469244
 30
0.0
 40
0.0
 41
0.0
  0
SEQEND
  5
1AE
100
AcDbEntity
  8
0
  0
POLYLINE
  5
1AF
100
AcDbEntity
  8
6
  6
CONTINUOUS
 62
     7
 48
0.125
100
AcDb2dPolyline
 66
     1
 10
0.0
 20
0.0
 30
0.0
 70
   128
  0
VERTEX
  5
1B0
100
AcDbEntity
  8
6
  6
CONTINUOUS
 62
     7
 48
0.125
100
AcDbVertex
100
AcDb2dVertex
 10
98.141379
 20
63.199244
 30
0.0
 40
0.0
 41
0.0
  0
VERTEX
  5
1B1
100
AcDbEntity
  8
6
  6
CONTINUOUS
 62
     7
 48
0.125
100
AcDbVertex
100
AcDb2dVertex
 10
99.979875
 20
63.199244
 30
0.0
 40
0.0
 41
0.0
  0
SEQEND
  5
1B2
100
AcDbEntity
  8
0
  0
TEXT
  5
1B3
100
AcDbEntity
  8
6
 62
     7
 48
0.0
100
AcDbText
 10
99.515141
 20
61.734244
 30
0.0
 40
0.25
  1
2.73
 72
     5
 11
100.19461
 21
61.734244
 31
0.0
210
0.0
220
0.0
230
1.0
100
AcDbText
  0
POLYLINE
  5
1B4
100
AcDbEntity
  8
6
  6
CONTINUOUS
 62
     7
 48
0.125
100
AcDb2dPolyline
 66
     1
 10
0.0
 20
0.0
 30
0.0
 70
   128
  0
VERTEX
  5
1B5
100
AcDbEntity
  8
6
  6
CONTINUOUS
 62
     7
 48
0.125
100
AcDbVertex
100
AcDb2dVertex
 10
98.453879
 20
60.469244
 30
0.0
 40
0.0
 41
0.0
  0
VERTEX
  5
1B6
100
AcDbEntity
  8
6
  6
CONTINUOUS
 62
     7
 48
0.125
100
AcDbVertex
100
AcDb2dVertex
 10
101.07754
 20
60.469244
 30
0.0
 40
0.0
 41
0.0
  0
SEQEND
  5
1B7
100
AcDbEntity
  8
0
  0
POLYLINE
  5
1B8
100
AcDbEntity
  8
6
  6
CONTINUOUS
 62
     7
 48
0.125
100
AcDb2dPolyline
 66
     1
 10
0.0
 20
0.0
 30
0.0
 70
   128
  0
VERTEX
  5
1B9
100
AcDbEntity
  8
6
  6
CONTINUOUS
 62
     7
 48
0.125
100
AcDbVertex
100
AcDb2dVertex
 10
97.641379
 20
64.319244
 30
0.0
 40
0.0
 41
0.0
  0
VERTEX
  5
1BA
100
AcDbEntity
  8
6
  6
CONTINUOUS
 62
     7
 48
0.125
100
AcDbVertex
100
AcDb2dVertex
 10
101.07754
 20
64.319244
 30
0.0
 40
0.0
 41
0.0
  0
SEQEND
  5
1BB
100
AcDbEntity
  8
0
  0
TEXT
  5
1BC
100
AcDbEntity
  8
6
 62
     7
 48
0.0
100
AcDbText
 10
100.612805
 20
62.294244
 30
0.0
 40
0.25
  1
3.85
 72
     5
 11
101.292274
 21
62.294244
 31
0.0
210
0.0
220
0.0
230
1.0
100
AcDbText
  0
POLYLINE
  5
1BD
100
AcDbEntity
  8
6
  6
CONTINUOUS
 62
     7
 48
0.125
100
AcDb2dPolyline
 66
     1
 10
0.0
 20
0.0
 30
0.0
 70
   128
  0
VERTEX
  5
1BE
100
AcDbEntity
  8
6
  6
CONTINUOUS
 62
     7
 48
0.125
100
AcDbVertex
100
AcDb2dVertex
 10
97.141379
 20
65.129244
 30
0.0
 40
0.0
 41
0.0
  0
VERTEX
  5
1BF
100
AcDbEntity
  8
6
  6
CONTINUOUS
 62
     7
 48
0.125
100
AcDbVertex
100
AcDb2dVertex
 10
102.135292
 20
65.129244
 30
0.0
 40
0.0
 41
0.0
  0
SEQEND
  5
1C0
100
AcDbEntity
  8
0
  0
POLYLINE
  5
1C1
100
AcDbEntity
  8
6
  6
CONTINUOUS
 62
     7
 48
0.125
100
AcDb2dPolyline
 66
     1
 10
0.0
 20
0.0
 30
0.0
 70
   128
  0
VERTEX
  5
1C2
100
AcDbEntity
  8
6
  6
CONTINUOUS
 62
     7
 48
0.125
100
AcDbVertex
100
AcDb2dVertex
 10
98.453879
 20
60.469244
 30
0.0
 40
0.0
 41
0.0
  0
VERTEX
  5
1C3
100
AcDbEntity
  8
6
  6
CONTINUOUS
 62
     7
 48
0.125
100
AcDbVertex
100
AcDb2dVertex
 10
102.135292
 20
60.469244
 30
0.0
 40
0.0
 41
0.0
  0
SEQEND
  5
1C4
100
AcDbEntity
  8
0
  0
TEXT
  5
1C5
100
AcDbEntity
  8
6
 62
     7
 48
0.0
100
AcDbText
 10
101.670557
 20
62.699244
 30
0.0
 40
0.25
  1
4.66
 72
     5
 11
102.350026
 21
62.699244
 31
0.0
210
0.0
220
0.0
230
1.0
100
AcDbText
  0
POLYLINE
  5
1C6
100
AcDbEntity
  8
6
  6
CONTINUOUS
 62
     7
 48
0.125
100
AcDb2dPolyline
 66
     1
 10
0.0
 20
0.0
 30
0.0
 70
   128
  0
VERTEX
  5
1C7
100
AcDbEntity
  8
6
  6
CONTINUOUS
 62
     7
 48
0.125
100
AcDbVertex
100
AcDb2dVertex
 10
96.641379
 20
65.789244
 30
0.0
 40
0.0
 41
0.0
  0
VERTEX
  5
1C8
100
AcDbEntity
  8
6
  6
CONTINUOUS
 62
     7
 48
0.125
100
AcDbVertex
100
AcDb2dVertex
 10
103.103232
 20
65.789244
 30
0.0
 40
0.0
 41
0.0
  0
SEQEND
  5
1C9
100
AcDbEntity
  8
0
  0
POLYLINE
  5
1CA
100
AcDbEntity
  8
6
  6
CONTINUOUS
 62
     7
 48
0.125
100
AcDb2dPolyline
 66
     1
 10
0.0
 20
0.0
 30
0.0
 70
   128
  0
VERTEX
  5
1CB
100
AcDbEntity
  8
6
  6
CONTINUOUS
 62
     7
 48
0.125
100
AcDbVertex
100
AcDb2dVertex
 10
98.578879
 20
60.469244
 30
0.0
 40
0.0
 41
0.0
  0
VERTEX
  5
1CC
100
AcDbEntity
  8
6
  6
CONTINUOUS
 62
     7
 48
0.125
100
AcDbVertex
100
AcDb2dVertex
 10
103.103232
 20
60.469244
 30
0.0
 40
0.0
 41
0.0
  0
SEQEND
  5
1CD
100
AcDbEntity
  8
0
  0
TEXT
  5
1CE
100
AcDbEntity
  8
6
 62
     7
 48
0.0
100
AcDbText
 10
102.638497
 20
63.029244
 30
0.0
 40
0.25
  1
5.32
 72
     5
 11
103.317967
 21
63.029244
 31
0.0
210
0.0
220
0.0
230
1.0
100
AcDbText
  0
POLYLINE
  5
1CF
100
AcDbEntity
  8
6
  6
CONTINUOUS
 62
     7
 48
0.125
100
AcDb2dPolyline
 66
     1
 10
0.0
 20
0.0
 30
0.0
 70
   128
  0
VERTEX
  5
1D0
100
AcDbEntity
  8
6
  6
CONTINUOUS
 62
     7
 48
0.125
100
AcDbVertex
100
AcDb2dVertex
 10
74.766379
 20
60.406744
 30
0.0
 40
0.0
 41
0.0
  0
VERTEX
  5
1D1
100
AcDbEntity
  8
6
  6
CONTINUOUS
 62
     7
 48
0.125
100
AcDbVertex
100
AcDb2dVertex
 10
74.766379
 20
59.627607
 30
0.0
 40
0.0
 41
0.0
  0
SEQEND
  5
1D2
100
AcDbEntity
  8
0
  0
POLYLINE
  5
1D3
100
AcDbEntity
  8
6
  6
CONTINUOUS
 62
     7
 48
0.125
100
AcDb2dPolyline
 66
     1
 10
0.0
 20
0.0
 30
0.0
 70
   128
  0
VERTEX
  5
1D4
100
AcDbEntity
  8
6
  6
CONTINUOUS
 62
     7
 48
0.125
100
AcDbVertex
100
AcDb2dVertex
 10
86.516379
 20
60.344244
 30
0.0
 40
0.0
 41
0.0
  0
VERTEX
  5
1D5
100
AcDbEntity
  8
6
  6
CONTINUOUS
 62
     7
 48
0.125
100
AcDbVertex
100
AcDb2dVertex
 10
86.516379
 20
59.627607
 30
0.0
 40
0.0
 41
0.0
  0
SEQEND
  5
1D6
100
AcDbEntity
  8
0
  0
TEXT
  5
1D7
100
AcDbEntity
  8
6
 62
     7
 48
0.0
100
AcDbText
 10
80.204578
 20
59.652607
 30
0.0
 40
0.25
  1
11.75
 72
     5
 11
81.078181
 21
59.652607
 31
0.0
210
0.0
220
0.0
230
1.0
100
AcDbText
  0
POLYLINE
  5
1D8
100
AcDbEntity
  8
6
  6
CONTINUOUS
 62
     7
 48
0.125
100
AcDb2dPolyline
 66
     1
 10
0.0
 20
0.0
 30
0.0
 70
   128
  0
VERTEX
  5
1D9
100
AcDbEntity
  8
6
  6
CONTINUOUS
 62
     7
 48
0.125
100
AcDbVertex
100
AcDb2dVertex
 10
74.766379
 20
60.406744
 30
0.0
 40
0.0
 41
0.0
  0
VERTEX
  5
1DA
100
AcDbEntity
  8
6
  6
CONTINUOUS
 62
     7
 48
0.125
100
AcDbVertex
100
AcDb2dVertex
 10
74.766379
 20
59.042221
 30
0.0
 40
0.0
 41
0.0
  0
SEQEND
  5
1DB
100
AcDbEntity
  8
0
  0
POLYLINE
  5
1DC
100
AcDbEntity
  8
6
  6
CONTINUOUS
 62
     7
 48
0.125
100
AcDb2dPolyline
 66
     1
 10
0.0
 20
0.0
 30
0.0
 70
   128
  0
VERTEX
  5
1DD
100
AcDbEntity
  8
6
  6
CONTINUOUS
 62
     7
 48
0.125
100
AcDbVertex
100
AcDb2dVertex
 10
98.266379
 20
60.406744
 30
0.0
 40
0.0
 41
0.0
  0
VERTEX
  5
1DE
100
AcDbEntity
  8
6
  6
CONTINUOUS
 62
     7
 48
0.125
100
AcDbVertex
100
AcDb2dVertex
 10
98.266379
 20
59.042221
 30
0.0
 40
0.0
 41
0.0
  0
SEQEND
  5
1DF
100
AcDbEntity
  8
0
  0
TEXT
  5
1E0
100
AcDbEntity
  8
6
 62
     7
 48
0.0
100
AcDbText
 10
86.176645
 20
59.067221
 30
0.0
 40
0.25
  1
23.5
 72
     5
 11
86.856114
 21
59.067221
 31
0.0
210
0.0
220
0.0
230
1.0
100
AcDbText
  0
POLYLINE
  5
1E1
100
AcDbEntity
  8
6
  6
CONTINUOUS
 62
     7
 48
0.125
100
AcDb2dPolyline
 66
     1
 10
0.0
 20
0.0
 30
0.0
 70
   128
  0
VERTEX
  5
1E2
100
AcDbEntity
  8
6
  6
CONTINUOUS
 62
     7
 48
0.125
100
AcDbVertex
100
AcDb2dVertex
 10
74.616379
 20
61.524244
 30
0.0
 40
0.0
 41
0.0
  0
VERTEX
  5
1E3
100
AcDbEntity
  8
6
  6
CONTINUOUS
 62
     7
 48
0.125
100
AcDbVertex
100
AcDb2dVertex
 10
74.616379
 20
58.330001
 30
0.0
 40
0.0
 41
0.0
  0
SEQEND
  5
1E4
100
AcDbEntity
  8
0
  0
POLYLINE
  5
1E5
100
AcDbEntity
  8
6
  6
CONTINUOUS
 62
     7
 48
0.125
100
AcDb2dPolyline
 66
     1
 10
0.0
 20
0.0
 30
0.0
 70
   128
  0
VERTEX
  5
1E6
100
AcDbEntity
  8
6
  6
CONTINUOUS
 62
     7
 48
0.125
100
AcDbVertex
100
AcDb2dVertex
 10
98.416379
 20
61.524244
 30
0.0
 40
0.0
 41
0.0
  0
VERTEX
  5
1E7
100
AcDbEntity
  8
6
  6
CONTINUOUS
 62
     7
 48
0.125
100
AcDbVertex
100
AcDb2dVertex
 10
98.416379
 20
58.330001
 30
0.0
 40
0.0
 41
0.0
  0
SEQEND
  5
1E8
100
AcDbEntity
  8
0
  0
TEXT
  5
1E9
100
AcDbEntity
  8
6
 62
     7
 48
0.0
100
AcDbText
 10
86.176645
 20
58.355001
 30
0.0
 40
0.25
  1
23.8
 72
     5
 11
86.856114
 21
58.355001
 31
0.0
210
0.0
220
0.0
230
1.0
100
AcDbText
  0
POLYLINE
  5
1EA
100
AcDbEntity
  8
6
  6
CONTINUOUS
 62
     7
 48
0.125
100
AcDb2dPolyline
 66
     1
 10
0.0
 20
0.0
 30
0.0
 70
   128
  0
VERTEX
  5
1EB
100
AcDbEntity
  8
6
  6
CONTINUOUS
 62
     7
 48
0.125
100
AcDbVertex
100
AcDb2dVertex
 10
85.785205
 20
66.274244
 30
0.0
 40
0.0
 41
0.0
  0
VERTEX
  5
1EC
100
AcDbEntity
  8
6
  6
CONTINUOUS
 62
     7
 48
0.125
100
AcDbVertex
100
AcDb2dVertex
 10
85.785205
 20
70.149244
 30
0.0
 40
0.0
 41
0.0
  0
SEQEND
  5
1ED
100
AcDbEntity
  8
0
  0
POLYLINE
  5
1EE
100
AcDbEntity
  8
6
  6
CONTINUOUS
 62
     7
 48
0.125
100
AcDb2dPolyline
 66
     1
 10
0.0
 20
0.0
 30
0.0
 70
   128
  0
VERTEX
  5
1EF
100
AcDbEntity
  8
6
  6
CONTINUOUS
 62
     7
 48
0.125
100
AcDbVertex
100
AcDb2dVertex
 10
85.735205
 20
69.899244
 30
0.0
 40
0.0
 41
0.0
  0
VERTEX
  5
1F0
100
AcDbEntity
  8
6
  6
CONTINUOUS
 62
     7
 48
0.125
100
AcDbVertex
100
AcDb2dVertex
 10
85.785205
 20
70.149244
 30
0.0
 40
0.0
 41
0.0
  0
VERTEX
  5
1F1
100
AcDbEntity
  8
6
  6
CONTINUOUS
 62
     7
 48
0.125
100
AcDbVertex
100
AcDb2dVertex
 10
85.835205
 20
69.899244
 30
0.0
 40
0.0
 41
0.0
  0
SEQEND
  5
1F2
100
AcDbEntity
  8
0
  0
POLYLINE
  5
1F3
100
AcDbEntity
  8
6
  6
CONTINUOUS
 62
     7
 48
0.125
100
AcDb2dPolyline
 66
     1
 10
0.0
 20
0.0
 30
0.0
 70
   128
  0
VERTEX
  5
1F4
100
AcDbEntity
  8
6
  6
CONTINUOUS
 62
     7
 48
0.125
100
AcDbVertex
100
AcDb2dVertex
 10
85.785205
 20
65.524244
 30
0.0
 40
0.0
 41
0.0
  0
VERTEX
  5
1F5
100
AcDbEntity
  8
6
  6
CONTINUOUS
 62
     7
 48
0.125
100
AcDbVertex
100
AcDb2dVertex
 10
85.785205
 20
61.649244
 30
0.0
 40
0.0
 41
0.0
  0
SEQEND
  5
1F6
100
AcDbEntity
  8
0
  0
POLYLINE
  5
1F7
100
AcDbEntity
  8
6
  6
CONTINUOUS
 62
     7
 48
0.125
100
AcDb2dPolyline
 66
     1
 10
0.0
 20
0.0
 30
0.0
 70
   128
  0
VERTEX
  5
1F8
100
AcDbEntity
  8
6
  6
CONTINUOUS
 62
     7
 48
0.125
100
AcDbVertex
100
AcDb2dVertex
 10
85.835205
 20
61.899244
 30
0.0
 40
0.0
 41
0.0
  0
VERTEX
  5
1F9
100
AcDbEntity
  8
6
  6
CONTINUOUS
 62
     7
 48
0.125
100
AcDbVertex
100
AcDb2dVertex
 10
85.785205
 20
61.649244
 30
0.0
 40
0.0
 41
0.0
  0
VERTEX
  5
1FA
100
AcDbEntity
  8
6
  6
CONTINUOUS
 62
     7
 48
0.125
100
AcDbVertex
100
AcDb2dVertex
 10
85.735205
 20
61.899244
 30
0.0
 40
0.0
 41
0.0
  0
SEQEND
  5
1FB
100
AcDbEntity
  8
0
  0
POLYLINE
  5
1FC
100
AcDbEntity
  8
6
  6
CONTINUOUS
 62
     7
 48
0.125
100
AcDb2dPolyline
 66
     1
 10
0.0
 20
0.0
 30
0.0
 70
   128
  0
VERTEX
  5
1FD
100
AcDbEntity
  8
6
  6
CONTINUOUS
 62
     7
 48
0.125
100
AcDbVertex
100
AcDb2dVertex
 10
87.516379
 20
66.264244
 30
0.0
 40
0.0
 41
0.0
  0
VERTEX
  5
1FE
100
AcDbEntity
  8
6
  6
CONTINUOUS
 62
     7
 48
0.125
100
AcDbVertex
100
AcDb2dVertex
 10
87.516379
 20
70.129244
 30
0.0
 40
0.0
 41
0.0
  0
SEQEND
  5
1FF
100
AcDbEntity
  8
0
  0
POLYLINE
  5
200
100
AcDbEntity
  8
6
  6
CONTINUOUS
 62
     7
 48
0.125
100
AcDb2dPolyline
 66
     1
 10
0.0
 20
0.0
 30
0.0
 70
   128
  0
VERTEX
  5
201
100
AcDbEntity
  8
6
  6
CONTINUOUS
 62
     7
 48
0.125
100
AcDbVertex
100
AcDb2dVertex
 10
87.466379
 20
69.879244
 30
0.0
 40
0.0
 41
0.0
  0
VERTEX
  5
202
100
AcDbEntity
  8
6
  6
CONTINUOUS
 62
     7
 48
0.125
100
AcDbVertex
100
AcDb2dVertex
 10
87.516379
 20
70.129244
 30
0.0
 40
0.0
 41
0.0
  0
VERTEX
  5
203
100
AcDbEntity
  8
6
  6
CONTINUOUS
 62
     7
 48
0.125
100
AcDbVertex
100
AcDb2dVertex
 10
87.566379
 20
69.879244
 30
0.0
 40
0.0
 41
0.0
  0
SEQEND
  5
204
100
AcDbEntity
  8
0
  0
POLYLINE
  5
205
100
AcDbEntity
  8
6
  6
CONTINUOUS
 62
     7
 48
0.125
100
AcDb2dPolyline
 66
     1
 10
0.0
 20
0.0
 30
0.0
 70
   128
  0
VERTEX
  5
206
100
AcDbEntity
  8
6
  6
CONTINUOUS
 62
     7
 48
0.125
100
AcDbVertex
100
AcDb2dVertex
 10
87.516379
 20
65.514244
 30
0.0
 40
0.0
 41
0.0
  0
VERTEX
  5
207
100
AcDbEntity
  8
6
  6
CONTINUOUS
 62
     7
 48
0.125
100
AcDbVertex
100
AcDb2dVertex
 10
87.516379
 20
61.649244
 30
0.0
 40
0.0
 41
0.0
  0
SEQEND
  5
208
100
AcDbEntity
  8
0
  0
POLYLINE
  5
209
100
AcDbEntity
  8
6
  6
CONTINUOUS
 62
     7
 48
0.125
100
AcDb2dPolyline
 66
     1
 10
0.0
 20
0.0
 30
0.0
 70
   128
  0
VERTEX
  5
20A
100
AcDbEntity
  8
6
  6
CONTINUOUS
 62
     7
 48
0.125
100
AcDbVertex
100
AcDb2dVertex
 10
87.566379
 20
61.899244
 30
0.0
 40
0.0
 41
0.0
  0
VERTEX
  5
20B
100
AcDbEntity
  8
6
  6
CONTINUOUS
 62
     7
 48
0.125
100
AcDbVertex
100
AcDb2dVertex
 10
87.516379
 20
61.649244
 30
0.0
 40
0.0
 41
0.0
  0
VERTEX
  5
20C
100
AcDbEntity
  8
6
  6
CONTINUOUS
 62
     7
 48
0.125
100
AcDbVertex
100
AcDb2dVertex
 10
87.466379
 20
61.899244
 30
0.0
 40
0.0
 41
0.0
  0
SEQEND
  5
20D
100
AcDbEntity
  8
0
  0
POLYLINE
  5
20E
100
AcDbEntity
  8
6
  6
CONTINUOUS
 62
     7
 48
0.125
100
AcDb2dPolyline
 66
     1
 10
0.0
 20
0.0
 30
0.0
 70
   128
  0
VERTEX
  5
20F
100
AcDbEntity
  8
6
  6
CONTINUOUS
 62
     7
 48
0.125
100
AcDbVertex
100
AcDb2dVertex
 10
88.516379
 20
66.224244
 30
0.0
 40
0.0
 41
0.0
  0
VERTEX
  5
210
100
AcDbEntity
  8
6
  6
CONTINUOUS
 62
     7
 48
0.125
100
AcDbVertex
100
AcDb2dVertex
 10
88.516379
 20
70.049244
 30
0.0
 40
0.0
 41
0.0
  0
SEQEND
  5
211
100
AcDbEntity
  8
0
  0
POLYLINE
  5
212
100
AcDbEntity
  8
6
  6
CONTINUOUS
 62
     7
 48
0.125
100
AcDb2dPolyline
 66
     1
 10
0.0
 20
0.0
 30
0.0
 70
   128
  0
VERTEX
  5
213
100
AcDbEntity
  8
6
  6
CONTINUOUS
 62
     7
 48
0.125
100
AcDbVertex
100
AcDb2dVertex
 10
88.466379
 20
69.799244
 30
0.0
 40
0.0
 41
0.0
  0
VERTEX
  5
214
100
AcDbEntity
  8
6
  6
CONTINUOUS
 62
     7
 48
0.125
100
AcDbVertex
100
AcDb2dVertex
 10
88.516379
 20
70.049244
 30
0.0
 40
0.0
 41
0.0
  0
VERTEX
  5
215
100
AcDbEntity
  8
6
  6
CONTINUOUS
 62
     7
 48
0.125
100
AcDbVertex
100
AcDb2dVertex
 10
88.566379
 20
69.799244
 30
0.0
 40
0.0
 41
0.0
  0
SEQEND
  5
216
100
AcDbEntity
  8
0
  0
POLYLINE
  5
217
100
AcDbEntity
  8
6
  6
CONTINUOUS
 62
     7
 48
0.125
100
AcDb2dPolyline
 66
     1
 10
0.0
 20
0.0
 30
0.0
 70
   128
  0
VERTEX
  5
218
100
AcDbEntity
  8
6
  6
CONTINUOUS
 62
     7
 48
0.125
100
AcDbVertex
100
AcDb2dVertex
 10
88.516379
 20
65.474244
 30
0.0
 40
0.0
 41
0.0
  0
VERTEX
  5
219
100
AcDbEntity
  8
6
  6
CONTINUOUS
 62
     7
 48
0.125
100
AcDbVertex
100
AcDb2dVertex
 10
88.516379
 20
61.649244
 30
0.0
 40
0.0
 41
0.0
  0
SEQEND
  5
21A
100
AcDbEntity
  8
0
  0
POLYLINE
  5
21B
100
AcDbEntity
  8
6
  6
CONTINUOUS
 62
     7
 48
0.125
100
AcDb2dPolyline
 66
     1
 10
0.0
 20
0.0
 30
0.0
 70
   128
  0
VERTEX
  5
21C
100
AcDbEntity
  8
6
  6
CONTINUOUS
 62
     7
 48
0.125
100
AcDbVertex
100
AcDb2dVertex
 10
88.566379
 20
61.899244
 30
0.0
 40
0.0
 41
0.0
  0
VERTEX
  5
21D
100
AcDbEntity
  8
6
  6
CONTINUOUS
 62
     7
 48
0.125
100
AcDbVertex
100
AcDb2dVertex
 10
88.516379
 20
61.649244
 30
0.0
 40
0.0
 41
0.0
  0
VERTEX
  5
21E
100
AcDbEntity
  8
6
  6
CONTINUOUS
 62
     7
 48
0.125
100
AcDbVertex
100
AcDb2dVertex
 10
88.466379
 20
61.899244
 30
0.0
 40
0.0
 41
0.0
  0
SEQEND
  5
21F
100
AcDbEntity
  8
0
  0
POLYLINE
  5
220
100
AcDbEntity
  8
6
  6
CONTINUOUS
 62
     7
 48
0.125
100
AcDb2dPolyline
 66
     1
 10
0.0
 20
0.0
 30
0.0
 70
   128
  0
VERTEX
  5
221
100
AcDbEntity
  8
6
  6
CONTINUOUS
 62
     7
 48
0.125
100
AcDbVertex
100
AcDb2dVertex
 10
89.516379
 20
66.139244
 30
0.0
 40
0.0
 41
0.0
  0
VERTEX
  5
222
100
AcDbEntity
  8
6
  6
CONTINUOUS
 62
     7
 48
0.125
100
AcDbVertex
100
AcDb2dVertex
 10
89.516379
 20
69.879244
 30
0.0
 40
0.0
 41
0.0
  0
SEQEND
  5
223
100
AcDbEntity
  8
0
  0
POLYLINE
  5
224
100
AcDbEntity
  8
6
  6
CONTINUOUS
 62
     7
 48
0.125
100
AcDb2dPolyline
 66
     1
 10
0.0
 20
0.0
 30
0.0
 70
   128
  0
VERTEX
  5
225
100
AcDbEntity
  8
6
  6
CONTINUOUS
 62
     7
 48
0.125
100
AcDbVertex
100
AcDb2dVertex
 10
89.466379
 20
69.629244
 30
0.0
 40
0.0
 41
0.0
  0
VERTEX
  5
226
100
AcDbEntity
  8
6
  6
CONTINUOUS
 62
     7
 48
0.125
100
AcDbVertex
100
AcDb2dVertex
 10
89.516379
 20
69.879244
 30
0.0
 40
0.0
 41
0.0
  0
VERTEX
  5
227
100
AcDbEntity
  8
6
  6
CONTINUOUS
 62
     7
 48
0.125
100
AcDbVertex
100
AcDb2dVertex
 10
89.566379
 20
69.629244
 30
0.0
 40
0.0
 41
0.0
  0
SEQEND
  5
228
100
AcDbEntity
  8
0
  0
POLYLINE
  5
229
100
AcDbEntity
  8
6
  6
CONTINUOUS
 62
     7
 48
0.125
100
AcDb2dPolyline
 66
     1
 10
0.0
 20
0.0
 30
0.0
 70
   128
  0
VERTEX
  5
22A
100
AcDbEntity
  8
6
  6
CONTINUOUS
 62
     7
 48
0.125
100
AcDbVertex
100
AcDb2dVertex
 10
89.516379
 20
65.389244
 30
0.0
 40
0.0
 41
0.0
  0
VERTEX
  5
22B
100
AcDbEntity
  8
6
  6
CONTINUOUS
 62
     7
 48
0.125
100
AcDbVertex
100
AcDb2dVertex
 10
89.516379
 20
61.649244
 30
0.0
 40
0.0
 41
0.0
  0
SEQEND
  5
22C
100
AcDbEntity
  8
0
  0
POLYLINE
  5
22D
100
AcDbEntity
  8
6
  6
CONTINUOUS
 62
     7
 48
0.125
100
AcDb2dPolyline
 66
     1
 10
0.0
 20
0.0
 30
0.0
 70
   128
  0
VERTEX
  5
22E
100
AcDbEntity
  8
6
  6
CONTINUOUS
 62
     7
 48
0.125
100
AcDbVertex
100
AcDb2dVertex
 10
89.566379
 20
61.899244
 30
0.0
 40
0.0
 41
0.0
  0
VERTEX
  5
22F
100
AcDbEntity
  8
6
  6
CONTINUOUS
 62
     7
 48
0.125
100
AcDbVertex
100
AcDb2dVertex
 10
89.516379
 20
61.649244
 30
0.0
 40
0.0
 41
0.0
  0
VERTEX
  5
230
100
AcDbEntity
  8
6
  6
CONTINUOUS
 62
     7
 48
0.125
100
AcDbVertex
100
AcDb2dVertex
 10
89.466379
 20
61.899244
 30
0.0
 40
0.0
 41
0.0
  0
SEQEND
  5
231
100
AcDbEntity
  8
0
  0
POLYLINE
  5
232
100
AcDbEntity
  8
6
  6
CONTINUOUS
 62
     7
 48
0.125
100
AcDb2dPolyline
 66
     1
 10
0.0
 20
0.0
 30
0.0
 70
   128
  0
VERTEX
  5
233
100
AcDbEntity
  8
6
  6
CONTINUOUS
 62
     7
 48
0.125
100
AcDbVertex
100
AcDb2dVertex
 10
90.516379
 20
65.999244
 30
0.0
 40
0.0
 41
0.0
  0
VERTEX
  5
234
100
AcDbEntity
  8
6
  6
CONTINUOUS
 62
     7
 48
0.125
100
AcDbVertex
100
AcDb2dVertex
 10
90.516379
 20
69.599244
 30
0.0
 40
0.0
 41
0.0
  0
SEQEND
  5
235
100
AcDbEntity
  8
0
  0
POLYLINE
  5
236
100
AcDbEntity
  8
6
  6
CONTINUOUS
 62
     7
 48
0.125
100
AcDb2dPolyline
 66
     1
 10
0.0
 20
0.0
 30
0.0
 70
   128
  0
VERTEX
  5
237
100
AcDbEntity
  8
6
  6
CONTINUOUS
 62
     7
 48
0.125
100
AcDbVertex
100
AcDb2dVertex
 10
90.466379
 20
69.349244
 30
0.0
 40
0.0
 41
0.0
  0
VERTEX
  5
238
100
AcDbEntity
  8
6
  6
CONTINUOUS
 62
     7
 48
0.125
100
AcDbVertex
100
AcDb2dVertex
 10
90.516379
 20
69.599244
 30
0.0
 40
0.0
 41
0.0
  0
VERTEX
  5
239
100
AcDbEntity
  8
6
  6
CONTINUOUS
 62
     7
 48
0.125
100
AcDbVertex
100
AcDb2dVertex
 10
90.566379
 20
69.349244
 30
0.0
 40
0.0
 41
0.0
  0
SEQEND
  5
23A
100
AcDbEntity
  8
0
  0
POLYLINE
  5
23B
100
AcDbEntity
  8
6
  6
CONTINUOUS
 62
     7
 48
0.125
100
AcDb2dPolyline
 66
     1
 10
0.0
 20
0.0
 30
0.0
 70
   128
  0
VERTEX
  5
23C
100
AcDbEntity
  8
6
  6
CONTINUOUS
 62
     7
 48
0.125
100
AcDbVertex
100
AcDb2dVertex
 10
90.516379
 20
65.249244
 30
0.0
 40
0.0
 41
0.0
  0
VERTEX
  5
23D
100
AcDbEntity
  8
6
  6
CONTINUOUS
 62
     7
 48
0.125
100
AcDbVertex
100
AcDb2dVertex
 10
90.516379
 20
61.649244
 30
0.0
 40
0.0
 41
0.0
  0
SEQEND
  5
23E
100
AcDbEntity
  8
0
  0
POLYLINE
  5
23F
100
AcDbEntity
  8
6
  6
CONTINUOUS
 62
     7
 48
0.125
100
AcDb2dPolyline
 66
     1
 10
0.0
 20
0.0
 30
0.0
 70
   128
  0
VERTEX
  5
240
100
AcDbEntity
  8
6
  6
CONTINUOUS
 62
     7
 48
0.125
100
AcDbVertex
100
AcDb2dVertex
 10
90.566379
 20
61.899244
 30
0.0
 40
0.0
 41
0.0
  0
VERTEX
  5
241
100
AcDbEntity
  8
6
  6
CONTINUOUS
 62
     7
 48
0.125
100
AcDbVertex
100
AcDb2dVertex
 10
90.516379
 20
61.649244
 30
0.0
 40
0.0
 41
0.0
  0
VERTEX
  5
242
100
AcDbEntity
  8
6
  6
CONTINUOUS
 62
     7
 48
0.125
100
AcDbVertex
100
AcDb2dVertex
 10
90.466379
 20
61.899244
 30
0.0
 40
0.0
 41
0.0
  0
SEQEND
  5
243
100
AcDbEntity
  8
0
  0
POLYLINE
  5
244
100
AcDbEntity
  8
6
  6
CONTINUOUS
 62
     7
 48
0.125
100
AcDb2dPolyline
 66
     1
 10
0.0
 20
0.0
 30
0.0
 70
   128
  0
VERTEX
  5
245
100
AcDbEntity
  8
6
  6
CONTINUOUS
 62
     7
 48
0.125
100
AcDbVertex
100
AcDb2dVertex
 10
91.516379
 20
65.834244
 30
0.0
 40
0.0
 41
0.0
  0
VERTEX
  5
246
100
AcDbEntity
  8
6
  6
CONTINUOUS
 62
     7
 48
0.125
100
AcDbVertex
100
AcDb2dVertex
 10
91.516379
 20
69.269244
 30
0.0
 40
0.0
 41
0.0
  0
SEQEND
  5
247
100
AcDbEntity
  8
0
  0
POLYLINE
  5
248
100
AcDbEntity
  8
6
  6
CONTINUOUS
 62
     7
 48
0.125
100
AcDb2dPolyline
 66
     1
 10
0.0
 20
0.0
 30
0.0
 70
   128
  0
VERTEX
  5
249
100
AcDbEntity
  8
6
  6
CONTINUOUS
 62
     7
 48
0.125
100
AcDbVertex
100
AcDb2dVertex
 10
91.466379
 20
69.019244
 30
0.0
 40
0.0
 41
0.0
  0
VERTEX
  5
24A
100
AcDbEntity
  8
6
  6
CONTINUOUS
 62
     7
 48
0.125
100
AcDbVertex
100
AcDb2dVertex
 10
91.516379
 20
69.269244
 30
0.0
 40
0.0
 41
0.0
  0
VERTEX
  5
24B
100
AcDbEntity
  8
6
  6
CONTINUOUS
 62
     7
 48
0.125
100
AcDbVertex
100
AcDb2dVertex
 10
91.566379
 20
69.019244
 30
0.0
 40
0.0
 41
0.0
  0
SEQEND
  5
24C
100
AcDbEntity
  8
0
  0
POLYLINE
  5
24D
100
AcDbEntity
  8
6
  6
CONTINUOUS
 62
     7
 48
0.125
100
AcDb2dPolyline
 66
     1
 10
0.0
 20
0.0
 30
0.0
 70
   128
  0
VERTEX
  5
24E
100
AcDbEntity
  8
6
  6
CONTINUOUS
 62
     7
 48
0.125
100
AcDbVertex
100
AcDb2dVertex
 10
91.516379
 20
65.084244
 30
0.0
 40
0.0
 41
0.0
  0
VERTEX
  5
24F
100
AcDbEntity
  8
6
  6
CONTINUOUS
 62
     7
 48
0.125
100
AcDbVertex
100
AcDb2dVertex
 10
91.516379
 20
61.649244
 30
0.0
 40
0.0
 41
0.0
  0
SEQEND
  5
250
100
AcDbEntity
  8
0
  0
POLYLINE
  5
251
100
AcDbEntity
  8
6
  6
CONTINUOUS
 62
     7
 48
0.125
100
AcDb2dPolyline
 66
     1
 10
0.0
 20
0.0
 30
0.0
 70
   128
  0
VERTEX
  5
252
100
AcDbEntity
  8
6
  6
CONTINUOUS
 62
     7
 48
0.125
100
AcDbVertex
100
AcDb2dVertex
 10
91.566379
 20
61.899244
 30
0.0
 40
0.0
 41
0.0
  0
VERTEX
  5
253
100
AcDbEntity
  8
6
  6
CONTINUOUS
 62
     7
 48
0.125
100
AcDbVertex
100
AcDb2dVertex
 10
91.516379
 20
61.649244
 30
0.0
 40
0.0
 41
0.0
  0
VERTEX
  5
254
100
AcDbEntity
  8
6
  6
CONTINUOUS
 62
     7
 48
0.125
100
AcDbVertex
100
AcDb2dVertex
 10
91.466379
 20
61.899244
 30
0.0
 40
0.0
 41
0.0
  0
SEQEND
  5
255
100
AcDbEntity
  8
0
  0
POLYLINE
  5
256
100
AcDbEntity
  8
6
  6
CONTINUOUS
 62
     7
 48
0.125
100
AcDb2dPolyline
 66
     1
 10
0.0
 20
0.0
 30
0.0
 70
   128
  0
VERTEX
  5
257
100
AcDbEntity
  8
6
  6
CONTINUOUS
 62
     7
 48
0.125
100
AcDbVertex
100
AcDb2dVertex
 10
92.516379
 20
65.619244
 30
0.0
 40
0.0
 41
0.0
  0
VERTEX
  5
258
100
AcDbEntity
  8
6
  6
CONTINUOUS
 62
     7
 48
0.125
100
AcDbVertex
100
AcDb2dVertex
 10
92.516379
 20
68.839244
 30
0.0
 40
0.0
 41
0.0
  0
SEQEND
  5
259
100
AcDbEntity
  8
0
  0
POLYLINE
  5
25A
100
AcDbEntity
  8
6
  6
CONTINUOUS
 62
     7
 48
0.125
100
AcDb2dPolyline
 66
     1
 10
0.0
 20
0.0
 30
0.0
 70
   128
  0
VERTEX
  5
25B
100
AcDbEntity
  8
6
  6
CONTINUOUS
 62
     7
 48
0.125
100
AcDbVertex
100
AcDb2dVertex
 10
92.466379
 20
68.589244
 30
0.0
 40
0.0
 41
0.0
  0
VERTEX
  5
25C
100
AcDbEntity
  8
6
  6
CONTINUOUS
 62
     7
 48
0.125
100
AcDbVertex
100
AcDb2dVertex
 10
92.516379
 20
68.839244
 30
0.0
 40
0.0
 41
0.0
  0
VERTEX
  5
25D
100
AcDbEntity
  8
6
  6
CONTINUOUS
 62
     7
 48
0.125
100
AcDbVertex
100
AcDb2dVertex
 10
92.566379
 20
68.589244
 30
0.0
 40
0.0
 41
0.0
  0
SEQEND
  5
25E
100
AcDbEntity
  8
0
  0
POLYLINE
  5
25F
100
AcDbEntity
  8
6
  6
CONTINUOUS
 62
     7
 48
0.125
100
AcDb2dPolyline
 66
     1
 10
0.0
 20
0.0
 30
0.0
 70
   128
  0
VERTEX
  5
260
100
AcDbEntity
  8
6
  6
CONTINUOUS
 62
     7
 48
0.125
100
AcDbVertex
100
AcDb2dVertex
 10
92.516379
 20
64.869244
 30
0.0
 40
0.0
 41
0.0
  0
VERTEX
  5
261
100
AcDbEntity
  8
6
  6
CONTINUOUS
 62
     7
 48
0.125
100
AcDbVertex
100
AcDb2dVertex
 10
92.516379
 20
61.649244
 30
0.0
 40
0.0
 41
0.0
  0
SEQEND
  5
262
100
AcDbEntity
  8
0
  0
POLYLINE
  5
263
100
AcDbEntity
  8
6
  6
CONTINUOUS
 62
     7
 48
0.125
100
AcDb2dPolyline
 66
     1
 10
0.0
 20
0.0
 30
0.0
 70
   128
  0
VERTEX
  5
264
100
AcDbEntity
  8
6
  6
CONTINUOUS
 62
     7
 48
0.125
100
AcDbVertex
100
AcDb2dVertex
 10
92.566379
 20
61.899244
 30
0.0
 40
0.0
 41
0.0
  0
VERTEX
  5
265
100
AcDbEntity
  8
6
  6
CONTINUOUS
 62
     7
 48
0.125
100
AcDbVertex
100
AcDb2dVertex
 10
92.516379
 20
61.649244
 30
0.0
 40
0.0
 41
0.0
  0
VERTEX
  5
266
100
AcDbEntity
  8
6
  6
CONTINUOUS
 62
     7
 48
0.125
100
AcDbVertex
100
AcDb2dVertex
 10
92.466379
 20
61.899244
 30
0.0
 40
0.0
 41
0.0
  0
SEQEND
  5
267
100
AcDbEntity
  8
0
  0
POLYLINE
  5
268
100
AcDbEntity
  8
6
  6
CONTINUOUS
 62
     7
 48
0.125
100
AcDb2dPolyline
 66
     1
 10
0.0
 20
0.0
 30
0.0
 70
   128
  0
VERTEX
  5
269
100
AcDbEntity
  8
6
  6
CONTINUOUS
 62
     7
 48
0.125
100
AcDbVertex
100
AcDb2dVertex
 10
93.516379
 20
65.364244
 30
0.0
 40
0.0
 41
0.0
  0
VERTEX
  5
26A
100
AcDbEntity
  8
6
  6
CONTINUOUS
 62
     7
 48
0.125
100
AcDbVertex
100
AcDb2dVertex
 10
93.516379
 20
68.329244
 30
0.0
 40
0.0
 41
0.0
  0
SEQEND
  5
26B
100
AcDbEntity
  8
0
  0
POLYLINE
  5
26C
100
AcDbEntity
  8
6
  6
CONTINUOUS
 62
     7
 48
0.125
100
AcDb2dPolyline
 66
     1
 10
0.0
 20
0.0
 30
0.0
 70
   128
  0
VERTEX
  5
26D
100
AcDbEntity
  8
6
  6
CONTINUOUS
 62
     7
 48
0.125
100
AcDbVertex
100
AcDb2dVertex
 10
93.466379
 20
68.079244
 30
0.0
 40
0.0
 41
0.0
  0
VERTEX
  5
26E
100
AcDbEntity
  8
6
  6
CONTINUOUS
 62
     7
 48
0.125
100
AcDbVertex
100
AcDb2dVertex
 10
93.516379
 20
68.329244
 30
0.0
 40
0.0
 41
0.0
  0
VERTEX
  5
26F
100
AcDbEntity
  8
6
  6
CONTINUOUS
 62
     7
 48
0.125
100
AcDbVertex
100
AcDb2dVertex
 10
93.566379
 20
68.079244
 30
0.0
 40
0.0
 41
0.0
  0
SEQEND
  5
270
100
AcDbEntity
  8
0
  0
POLYLINE
  5
271
100
AcDbEntity
  8
6
  6
CONTINUOUS
 62
     7
 48
0.125
100
AcDb2dPolyline
 66
     1
 10
0.0
 20
0.0
 30
0.0
 70
   128
  0
VERTEX
  5
272
100
AcDbEntity
  8
6
  6
CONTINUOUS
 62
     7
 48
0.125
100
AcDbVertex
100
AcDb2dVertex
 10
93.516379
 20
64.614244
 30
0.0
 40
0.0
 41
0.0
  0
VERTEX
  5
273
100
AcDbEntity
  8
6
  6
CONTINUOUS
 62
     7
 48
0.125
100
AcDbVertex
100
AcDb2dVertex
 10
93.516379
 20
61.649244
 30
0.0
 40
0.0
 41
0.0
  0
SEQEND
  5
274
100
AcDbEntity
  8
0
  0
POLYLINE
  5
275
100
AcDbEntity
  8
6
  6
CONTINUOUS
 62
     7
 48
0.125
100
AcDb2dPolyline
 66
     1
 10
0.0
 20
0.0
 30
0.0
 70
   128
  0
VERTEX
  5
276
100
AcDbEntity
  8
6
  6
CONTINUOUS
 62
     7
 48
0.125
100
AcDbVertex
100
AcDb2dVertex
 10
93.566379
 20
61.899244
 30
0.0
 40
0.0
 41
0.0
  0
VERTEX
  5
277
100
AcDbEntity
  8
6
  6
CONTINUOUS
 62
     7
 48
0.125
100
AcDbVertex
100
AcDb2dVertex
 10
93.516379
 20
61.649244
 30
0.0
 40
0.0
 41
0.0
  0
VERTEX
  5
278
100
AcDbEntity
  8
6
  6
CONTINUOUS
 62
     7
 48
0.125
100
AcDbVertex
100
AcDb2dVertex
 10
93.466379
 20
61.899244
 30
0.0
 40
0.0
 41
0.0
  0
SEQEND
  5
279
100
AcDbEntity
  8
0
  0
POLYLINE
  5
27A
100
AcDbEntity
  8
6
  6
CONTINUOUS
 62
     7
 48
0.125
100
AcDb2dPolyline
 66
     1
 10
0.0
 20
0.0
 30
0.0
 70
   128
  0
VERTEX
  5
27B
100
AcDbEntity
  8
6
  6
CONTINUOUS
 62
     7
 48
0.125
100
AcDbVertex
100
AcDb2dVertex
 10
94.516379
 20
65.044244
 30
0.0
 40
0.0
 41
0.0
  0
VERTEX
  5
27C
100
AcDbEntity
  8
6
  6
CONTINUOUS
 62
     7
 48
0.125
100
AcDbVertex
100
AcDb2dVertex
 10
94.516379
 20
67.689244
 30
0.0
 40
0.0
 41
0.0
  0
SEQEND
  5
27D
100
AcDbEntity
  8
0
  0
POLYLINE
  5
27E
100
AcDbEntity
  8
6
  6
CONTINUOUS
 62
     7
 48
0.125
100
AcDb2dPolyline
 66
     1
 10
0.0
 20
0.0
 30
0.0
 70
   128
  0
VERTEX
  5
27F
100
AcDbEntity
  8
6
  6
CONTINUOUS
 62
     7
 48
0.125
100
AcDbVertex
100
AcDb2dVertex
 10
94.466379
 20
67.439244
 30
0.0
 40
0.0
 41
0.0
  0
VERTEX
  5
280
100
AcDbEntity
  8
6
  6
CONTINUOUS
 62
     7
 48
0.125
100
AcDbVertex
100
AcDb2dVertex
 10
94.516379
 20
67.689244
 30
0.0
 40
0.0
 41
0.0
  0
VERTEX
  5
281
100
AcDbEntity
  8
6
  6
CONTINUOUS
 62
     7
 48
0.125
100
AcDbVertex
100
AcDb2dVertex
 10
94.566379
 20
67.439244
 30
0.0
 40
0.0
 41
0.0
  0
SEQEND
  5
282
100
AcDbEntity
  8
0
  0
POLYLINE
  5
283
100
AcDbEntity
  8
6
  6
CONTINUOUS
 62
     7
 48
0.125
100
AcDb2dPolyline
 66
     1
 10
0.0
 20
0.0
 30
0.0
 70
   128
  0
VERTEX
  5
284
100
AcDbEntity
  8
6
  6
CONTINUOUS
 62
     7
 48
0.125
100
AcDbVertex
100
AcDb2dVertex
 10
94.516379
 20
64.294244
 30
0.0
 40
0.0
 41
0.0
  0
VERTEX
  5
285
100
AcDbEntity
  8
6
  6
CONTINUOUS
 62
     7
 48
0.125
100
AcDbVertex
100
AcDb2dVertex
 10
94.516379
 20
61.649244
 30
0.0
 40
0.0
 41
0.0
  0
SEQEND
  5
286
100
AcDbEntity
  8
0
  0
POLYLINE
  5
287
100
AcDbEntity
  8
6
  6
CONTINUOUS
 62
     7
 48
0.125
100
AcDb2dPolyline
 66
     1
 10
0.0
 20
0.0
 30
0.0
 70
   128
  0
VERTEX
  5
288
100
AcDbEntity
  8
6
  6
CONTINUOUS
 62
     7
 48
0.125
100
AcDbVertex
100
AcDb2dVertex
 10
94.566379
 20
61.899244
 30
0.0
 40
0.0
 41
0.0
  0
VERTEX
  5
289
100
AcDbEntity
  8
6
  6
CONTINUOUS
 62
     7
 48
0.125
100
AcDbVertex
100
AcDb2dVertex
 10
94.516379
 20
61.649244
 30
0.0
 40
0.0
 41
0.0
  0
VERTEX
  5
28A
100
AcDbEntity
  8
6
  6
CONTINUOUS
 62
     7
 48
0.125
100
AcDbVertex
100
AcDb2dVertex
 10
94.466379
 20
61.899244
 30
0.0
 40
0.0
 41
0.0
  0
SEQEND
  5
28B
100
AcDbEntity
  8
0
  0
POLYLINE
  5
28C
100
AcDbEntity
  8
6
  6
CONTINUOUS
 62
     7
 48
0.125
100
AcDb2dPolyline
 66
     1
 10
0.0
 20
0.0
 30
0.0
 70
   128
  0
VERTEX
  5
28D
100
AcDbEntity
  8
6
  6
CONTINUOUS
 62
     7
 48
0.125
100
AcDbVertex
100
AcDb2dVertex
 10
95.516379
 20
64.639244
 30
0.0
 40
0.0
 41
0.0
  0
VERTEX
  5
28E
100
AcDbEntity
  8
6
  6
CONTINUOUS
 62
     7
 48
0.125
100
AcDbVertex
100
AcDb2dVertex
 10
95.516379
 20
66.879244
 30
0.0
 40
0.0
 41
0.0
  0
SEQEND
  5
28F
100
AcDbEntity
  8
0
  0
POLYLINE
  5
290
100
AcDbEntity
  8
6
  6
CONTINUOUS
 62
     7
 48
0.125
100
AcDb2dPolyline
 66
     1
 10
0.0
 20
0.0
 30
0.0
 70
   128
  0
VERTEX
  5
291
100
AcDbEntity
  8
6
  6
CONTINUOUS
 62
     7
 48
0.125
100
AcDbVertex
100
AcDb2dVertex
 10
95.466379
 20
66.629244
 30
0.0
 40
0.0
 41
0.0
  0
VERTEX
  5
292
100
AcDbEntity
  8
6
  6
CONTINUOUS
 62
     7
 48
0.125
100
AcDbVertex
100
AcDb2dVertex
 10
95.516379
 20
66.879244
 30
0.0
 40
0.0
 41
0.0
  0
VERTEX
  5
293
100
AcDbEntity
  8
6
  6
CONTINUOUS
 62
     7
 48
0.125
100
AcDbVertex
100
AcDb2dVertex
 10
95.566379
 20
66.629244
 30
0.0
 40
0.0
 41
0.0
  0
SEQEND
  5
294
100
AcDbEntity
  8
0
  0
POLYLINE
  5
295
100
AcDbEntity
  8
6
  6
CONTINUOUS
 62
     7
 48
0.125
100
AcDb2dPolyline
 66
     1
 10
0.0
 20
0.0
 30
0.0
 70
   128
  0
VERTEX
  5
296
100
AcDbEntity
  8
6
  6
CONTINUOUS
 62
     7
 48
0.125
100
AcDbVertex
100
AcDb2dVertex
 10
95.516379
 20
63.889244
 30
0.0
 40
0.0
 41
0.0
  0
VERTEX
  5
297
100
AcDbEntity
  8
6
  6
CONTINUOUS
 62
     7
 48
0.125
100
AcDbVertex
100
AcDb2dVertex
 10
95.516379
 20
61.649244
 30
0.0
 40
0.0
 41
0.0
  0
SEQEND
  5
298
100
AcDbEntity
  8
0
  0
POLYLINE
  5
299
100
AcDbEntity
  8
6
  6
CONTINUOUS
 62
     7
 48
0.125
100
AcDb2dPolyline
 66
     1
 10
0.0
 20
0.0
 30
0.0
 70
   128
  0
VERTEX
  5
29A
100
AcDbEntity
  8
6
  6
CONTINUOUS
 62
     7
 48
0.125
100
AcDbVertex
100
AcDb2dVertex
 10
95.566379
 20
61.899244
 30
0.0
 40
0.0
 41
0.0
  0
VERTEX
  5
29B
100
AcDbEntity
  8
6
  6
CONTINUOUS
 62
     7
 48
0.125
100
AcDbVertex
100
AcDb2dVertex
 10
95.516379
 20
61.649244
 30
0.0
 40
0.0
 41
0.0
  0
VERTEX
  5
29C
100
AcDbEntity
  8
6
  6
CONTINUOUS
 62
     7
 48
0.125
100
AcDbVertex
100
AcDb2dVertex
 10
95.466379
 20
61.899244
 30
0.0
 40
0.0
 41
0.0
  0
SEQEND
  5
29D
100
AcDbEntity
  8
0
  0
POLYLINE
  5
29E
100
AcDbEntity
  8
6
  6
CONTINUOUS
 62
     7
 48
0.125
100
AcDb2dPolyline
 66
     1
 10
0.0
 20
0.0
 30
0.0
 70
   128
  0
VERTEX
  5
29F
100
AcDbEntity
  8
6
  6
CONTINUOUS
 62
     7
 48
0.125
100
AcDbVertex
100
AcDb2dVertex
 10
99.026638
 20
61.434244
 30
0.0
 40
0.0
 41
0.0
  0
VERTEX
  5
2A0
100
AcDbEntity
  8
6
  6
CONTINUOUS
 62
     7
 48
0.125
100
AcDbVertex
100
AcDb2dVertex
 10
99.026638
 20
61.649244
 30
0.0
 40
0.0
 41
0.0
  0
SEQEND
  5
2A1
100
AcDbEntity
  8
0
  0
POLYLINE
  5
2A2
100
AcDbEntity
  8
6
  6
CONTINUOUS
 62
     7
 48
0.125
100
AcDb2dPolyline
 66
     1
 10
0.0
 20
0.0
 30
0.0
 70
   128
  0
VERTEX
  5
2A3
100
AcDbEntity
  8
6
  6
CONTINUOUS
 62
     7
 48
0.125
100
AcDbVertex
100
AcDb2dVertex
 10
98.976638
 20
61.399244
 30
0.0
 40
0.0
 41
0.0
  0
VERTEX
  5
2A4
100
AcDbEntity
  8
6
  6
CONTINUOUS
 62
     7
 48
0.125
100
AcDbVertex
100
AcDb2dVertex
 10
99.026638
 20
61.649244
 30
0.0
 40
0.0
 41
0.0
  0
VERTEX
  5
2A5
100
AcDbEntity
  8
6
  6
CONTINUOUS
 62
     7
 48
0.125
100
AcDbVertex
100
AcDb2dVertex
 10
99.076638
 20
61.399244
 30
0.0
 40
0.0
 41
0.0
  0
SEQEND
  5
2A6
100
AcDbEntity
  8
0
  0
POLYLINE
  5
2A7
100
AcDbEntity
  8
6
  6
CONTINUOUS
 62
     7
 48
0.125
100
AcDb2dPolyline
 66
     1
 10
0.0
 20
0.0
 30
0.0
 70
   128
  0
VERTEX
  5
2A8
100
AcDbEntity
  8
6
  6
CONTINUOUS
 62
     7
 48
0.125
100
AcDbVertex
100
AcDb2dVertex
 10
99.026638
 20
60.684244
 30
0.0
 40
0.0
 41
0.0
  0
VERTEX
  5
2A9
100
AcDbEntity
  8
6
  6
CONTINUOUS
 62
     7
 48
0.125
100
AcDbVertex
100
AcDb2dVertex
 10
99.026638
 20
60.469244
 30
0.0
 40
0.0
 41
0.0
  0
SEQEND
  5
2AA
100
AcDbEntity
  8
0
  0
POLYLINE
  5
2AB
100
AcDbEntity
  8
6
  6
CONTINUOUS
 62
     7
 48
0.125
100
AcDb2dPolyline
 66
     1
 10
0.0
 20
0.0
 30
0.0
 70
   128
  0
VERTEX
  5
2AC
100
AcDbEntity
  8
6
  6
CONTINUOUS
 62
     7
 48
0.125
100
AcDbVertex
100
AcDb2dVertex
 10
99.076638
 20
60.719244
 30
0.0
 40
0.0
 41
0.0
  0
VERTEX
  5
2AD
100
AcDbEntity
  8
6
  6
CONTINUOUS
 62
     7
 48
0.125
100
AcDbVertex
100
AcDb2dVertex
 10
99.026638
 20
60.469244
 30
0.0
 40
0.0
 41
0.0
  0
VERTEX
  5
2AE
100
AcDbEntity
  8
6
  6
CONTINUOUS
 62
     7
 48
0.125
100
AcDbVertex
100
AcDb2dVertex
 10
98.976638
 20
60.719244
 30
0.0
 40
0.0
 41
0.0
  0
SEQEND
  5
2AF
100
AcDbEntity
  8
0
  0
POLYLINE
  5
2B0
100
AcDbEntity
  8
6
  6
CONTINUOUS
 62
     7
 48
0.125
100
AcDb2dPolyline
 66
     1
 10
0.0
 20
0.0
 30
0.0
 70
   128
  0
VERTEX
  5
2B1
100
AcDbEntity
  8
6
  6
CONTINUOUS
 62
     7
 48
0.125
100
AcDbVertex
100
AcDb2dVertex
 10
99.854875
 20
61.459244
 30
0.0
 40
0.0
 41
0.0
  0
VERTEX
  5
2B2
100
AcDbEntity
  8
6
  6
CONTINUOUS
 62
     7
 48
0.125
100
AcDbVertex
100
AcDb2dVertex
 10
99.854875
 20
60.469244
 30
0.0
 40
0.0
 41
0.0
  0
SEQEND
  5
2B3
100
AcDbEntity
  8
0
  0
POLYLINE
  5
2B4
100
AcDbEntity
  8
6
  6
CONTINUOUS
 62
     7
 48
0.125
100
AcDb2dPolyline
 66
     1
 10
0.0
 20
0.0
 30
0.0
 70
   128
  0
VERTEX
  5
2B5
100
AcDbEntity
  8
6
  6
CONTINUOUS
 62
     7
 48
0.125
100
AcDbVertex
100
AcDb2dVertex
 10
99.904875
 20
60.719244
 30
0.0
 40
0.0
 41
0.0
  0
VERTEX
  5
2B6
100
AcDbEntity
  8
6
  6
CONTINUOUS
 62
     7
 48
0.125
100
AcDbVertex
100
AcDb2dVertex
 10
99.854875
 20
60.469244
 30
0.0
 40
0.0
 41
0.0
  0
VERTEX
  5
2B7
100
AcDbEntity
  8
6
  6
CONTINUOUS
 62
     7
 48
0.125
100
AcDbVertex
100
AcDb2dVertex
 10
99.804875
 20
60.719244
 30
0.0
 40
0.0
 41
0.0
  0
SEQEND
  5
2B8
100
AcDbEntity
  8
0
  0
POLYLINE
  5
2B9
100
AcDbEntity
  8
6
  6
CONTINUOUS
 62
     7
 48
0.125
100
AcDb2dPolyline
 66
     1
 10
0.0
 20
0.0
 30
0.0
 70
   128
  0
VERTEX
  5
2BA
100
AcDbEntity
  8
6
  6
CONTINUOUS
 62
     7
 48
0.125
100
AcDbVertex
100
AcDb2dVertex
 10
99.854875
 20
62.209244
 30
0.0
 40
0.0
 41
0.0
  0
VERTEX
  5
2BB
100
AcDbEntity
  8
6
  6
CONTINUOUS
 62
     7
 48
0.125
100
AcDbVertex
100
AcDb2dVertex
 10
99.854875
 20
63.199244
 30
0.0
 40
0.0
 41
0.0
  0
SEQEND
  5
2BC
100
AcDbEntity
  8
0
  0
POLYLINE
  5
2BD
100
AcDbEntity
  8
6
  6
CONTINUOUS
 62
     7
 48
0.125
100
AcDb2dPolyline
 66
     1
 10
0.0
 20
0.0
 30
0.0
 70
   128
  0
VERTEX
  5
2BE
100
AcDbEntity
  8
6
  6
CONTINUOUS
 62
     7
 48
0.125
100
AcDbVertex
100
AcDb2dVertex
 10
99.804875
 20
62.949244
 30
0.0
 40
0.0
 41
0.0
  0
VERTEX
  5
2BF
100
AcDbEntity
  8
6
  6
CONTINUOUS
 62
     7
 48
0.125
100
AcDbVertex
100
AcDb2dVertex
 10
99.854875
 20
63.199244
 30
0.0
 40
0.0
 41
0.0
  0
VERTEX
  5
2C0
100
AcDbEntity
  8
6
  6
CONTINUOUS
 62
     7
 48
0.125
100
AcDbVertex
100
AcDb2dVertex
 10
99.904875
 20
62.949244
 30
0.0
 40
0.0
 41
0.0
  0
SEQEND
  5
2C1
100
AcDbEntity
  8
0
  0
POLYLINE
  5
2C2
100
AcDbEntity
  8
6
  6
CONTINUOUS
 62
     7
 48
0.125
100
AcDb2dPolyline
 66
     1
 10
0.0
 20
0.0
 30
0.0
 70
   128
  0
VERTEX
  5
2C3
100
AcDbEntity
  8
6
  6
CONTINUOUS
 62
     7
 48
0.125
100
AcDbVertex
100
AcDb2dVertex
 10
100.95254
 20
62.019244
 30
0.0
 40
0.0
 41
0.0
  0
VERTEX
  5
2C4
100
AcDbEntity
  8
6
  6
CONTINUOUS
 62
     7
 48
0.125
100
AcDbVertex
100
AcDb2dVertex
 10
100.95254
 20
60.469244
 30
0.0
 40
0.0
 41
0.0
  0
SEQEND
  5
2C5
100
AcDbEntity
  8
0
  0
POLYLINE
  5
2C6
100
AcDbEntity
  8
6
  6
CONTINUOUS
 62
     7
 48
0.125
100
AcDb2dPolyline
 66
     1
 10
0.0
 20
0.0
 30
0.0
 70
   128
  0
VERTEX
  5
2C7
100
AcDbEntity
  8
6
  6
CONTINUOUS
 62
     7
 48
0.125
100
AcDbVertex
100
AcDb2dVertex
 10
101.00254
 20
60.719244
 30
0.0
 40
0.0
 41
0.0
  0
VERTEX
  5
2C8
100
AcDbEntity
  8
6
  6
CONTINUOUS
 62
     7
 48
0.125
100
AcDbVertex
100
AcDb2dVertex
 10
100.95254
 20
60.469244
 30
0.0
 40
0.0
 41
0.0
  0
VERTEX
  5
2C9
100
AcDbEntity
  8
6
  6
CONTINUOUS
 62
     7
 48
0.125
100
AcDbVertex
100
AcDb2dVertex
 10
100.90254
 20
60.719244
 30
0.0
 40
0.0
 41
0.0
  0
SEQEND
  5
2CA
100
AcDbEntity
  8
0
  0
POLYLINE
  5
2CB
100
AcDbEntity
  8
6
  6
CONTINUOUS
 62
     7
 48
0.125
100
AcDb2dPolyline
 66
     1
 10
0.0
 20
0.0
 30
0.0
 70
   128
  0
VERTEX
  5
2CC
100
AcDbEntity
  8
6
  6
CONTINUOUS
 62
     7
 48
0.125
100
AcDbVertex
100
AcDb2dVertex
 10
100.95254
 20
62.769244
 30
0.0
 40
0.0
 41
0.0
  0
VERTEX
  5
2CD
100
AcDbEntity
  8
6
  6
CONTINUOUS
 62
     7
 48
0.125
100
AcDbVertex
100
AcDb2dVertex
 10
100.95254
 20
64.319244
 30
0.0
 40
0.0
 41
0.0
  0
SEQEND
  5
2CE
100
AcDbEntity
  8
0
  0
POLYLINE
  5
2CF
100
AcDbEntity
  8
6
  6
CONTINUOUS
 62
     7
 48
0.125
100
AcDb2dPolyline
 66
     1
 10
0.0
 20
0.0
 30
0.0
 70
   128
  0
VERTEX
  5
2D0
100
AcDbEntity
  8
6
  6
CONTINUOUS
 62
     7
 48
0.125
100
AcDbVertex
100
AcDb2dVertex
 10
100.90254
 20
64.069244
 30
0.0
 40
0.0
 41
0.0
  0
VERTEX
  5
2D1
100
AcDbEntity
  8
6
  6
CONTINUOUS
 62
     7
 48
0.125
100
AcDbVertex
100
AcDb2dVertex
 10
100.95254
 20
64.319244
 30
0.0
 40
0.0
 41
0.0
  0
VERTEX
  5
2D2
100
AcDbEntity
  8
6
  6
CONTINUOUS
 62
     7
 48
0.125
100
AcDbVertex
100
AcDb2dVertex
 10
101.00254
 20
64.069244
 30
0.0
 40
0.0
 41
0.0
  0
SEQEND
  5
2D3
100
AcDbEntity
  8
0
  0
POLYLINE
  5
2D4
100
AcDbEntity
  8
6
  6
CONTINUOUS
 62
     7
 48
0.125
100
AcDb2dPolyline
 66
     1
 10
0.0
 20
0.0
 30
0.0
 70
   128
  0
VERTEX
  5
2D5
100
AcDbEntity
  8
6
  6
CONTINUOUS
 62
     7
 48
0.125
100
AcDbVertex
100
AcDb2dVertex
 10
102.010292
 20
63.174244
 30
0.0
 40
0.0
 41
0.0
  0
VERTEX
  5
2D6
100
AcDbEntity
  8
6
  6
CONTINUOUS
 62
     7
 48
0.125
100
AcDbVertex
100
AcDb2dVertex
 10
102.010292
 20
65.129244
 30
0.0
 40
0.0
 41
0.0
  0
SEQEND
  5
2D7
100
AcDbEntity
  8
0
  0
POLYLINE
  5
2D8
100
AcDbEntity
  8
6
  6
CONTINUOUS
 62
     7
 48
0.125
100
AcDb2dPolyline
 66
     1
 10
0.0
 20
0.0
 30
0.0
 70
   128
  0
VERTEX
  5
2D9
100
AcDbEntity
  8
6
  6
CONTINUOUS
 62
     7
 48
0.125
100
AcDbVertex
100
AcDb2dVertex
 10
101.960292
 20
64.879244
 30
0.0
 40
0.0
 41
0.0
  0
VERTEX
  5
2DA
100
AcDbEntity
  8
6
  6
CONTINUOUS
 62
     7
 48
0.125
100
AcDbVertex
100
AcDb2dVertex
 10
102.010292
 20
65.129244
 30
0.0
 40
0.0
 41
0.0
  0
VERTEX
  5
2DB
100
AcDbEntity
  8
6
  6
CONTINUOUS
 62
     7
 48
0.125
100
AcDbVertex
100
AcDb2dVertex
 10
102.060292
 20
64.879244
 30
0.0
 40
0.0
 41
0.0
  0
SEQEND
  5
2DC
100
AcDbEntity
  8
0
  0
POLYLINE
  5
2DD
100
AcDbEntity
  8
6
  6
CONTINUOUS
 62
     7
 48
0.125
100
AcDb2dPolyline
 66
     1
 10
0.0
 20
0.0
 30
0.0
 70
   128
  0
VERTEX
  5
2DE
100
AcDbEntity
  8
6
  6
CONTINUOUS
 62
     7
 48
0.125
100
AcDbVertex
100
AcDb2dVertex
 10
102.010292
 20
62.424244
 30
0.0
 40
0.0
 41
0.0
  0
VERTEX
  5
2DF
100
AcDbEntity
  8
6
  6
CONTINUOUS
 62
     7
 48
0.125
100
AcDbVertex
100
AcDb2dVertex
 10
102.010292
 20
60.469244
 30
0.0
 40
0.0
 41
0.0
  0
SEQEND
  5
2E0
100
AcDbEntity
  8
0
  0
POLYLINE
  5
2E1
100
AcDbEntity
  8
6
  6
CONTINUOUS
 62
     7
 48
0.125
100
AcDb2dPolyline
 66
     1
 10
0.0
 20
0.0
 30
0.0
 70
   128
  0
VERTEX
  5
2E2
100
AcDbEntity
  8
6
  6
CONTINUOUS
 62
     7
 48
0.125
100
AcDbVertex
100
AcDb2dVertex
 10
102.060292
 20
60.719244
 30
0.0
 40
0.0
 41
0.0
  0
VERTEX
  5
2E3
100
AcDbEntity
  8
6
  6
CONTINUOUS
 62
     7
 48
0.125
100
AcDbVertex
100
AcDb2dVertex
 10
102.010292
 20
60.469244
 30
0.0
 40
0.0
 41
0.0
  0
VERTEX
  5
2E4
100
AcDbEntity
  8
6
  6
CONTINUOUS
 62
     7
 48
0.125
100
AcDbVertex
100
AcDb2dVertex
 10
101.960292
 20
60.719244
 30
0.0
 40
0.0
 41
0.0
  0
SEQEND
  5
2E5
100
AcDbEntity
  8
0
  0
POLYLINE
  5
2E6
100
AcDbEntity
  8
6
  6
CONTINUOUS
 62
     7
 48
0.125
100
AcDb2dPolyline
 66
     1
 10
0.0
 20
0.0
 30
0.0
 70
   128
  0
VERTEX
  5
2E7
100
AcDbEntity
  8
6
  6
CONTINUOUS
 62
     7
 48
0.125
100
AcDbVertex
100
AcDb2dVertex
 10
102.978232
 20
63.504244
 30
0.0
 40
0.0
 41
0.0
  0
VERTEX
  5
2E8
100
AcDbEntity
  8
6
  6
CONTINUOUS
 62
     7
 48
0.125
100
AcDbVertex
100
AcDb2dVertex
 10
102.978232
 20
65.789244
 30
0.0
 40
0.0
 41
0.0
  0
SEQEND
  5
2E9
100
AcDbEntity
  8
0
  0
POLYLINE
  5
2EA
100
AcDbEntity
  8
6
  6
CONTINUOUS
 62
     7
 48
0.125
100
AcDb2dPolyline
 66
     1
 10
0.0
 20
0.0
 30
0.0
 70
   128
  0
VERTEX
  5
2EB
100
AcDbEntity
  8
6
  6
CONTINUOUS
 62
     7
 48
0.125
100
AcDbVertex
100
AcDb2dVertex
 10
102.928232
 20
65.539244
 30
0.0
 40
0.0
 41
0.0
  0
VERTEX
  5
2EC
100
AcDbEntity
  8
6
  6
CONTINUOUS
 62
     7
 48
0.125
100
AcDbVertex
100
AcDb2dVertex
 10
102.978232
 20
65.789244
 30
0.0
 40
0.0
 41
0.0
  0
VERTEX
  5
2ED
100
AcDbEntity
  8
6
  6
CONTINUOUS
 62
     7
 48
0.125
100
AcDbVertex
100
AcDb2dVertex
 10
103.028232
 20
65.539244
 30
0.0
 40
0.0
 41
0.0
  0
SEQEND
  5
2EE
100
AcDbEntity
  8
0
  0
POLYLINE
  5
2EF
100
AcDbEntity
  8
6
  6
CONTINUOUS
 62
     7
 48
0.125
100
AcDb2dPolyline
 66
     1
 10
0.0
 20
0.0
 30
0.0
 70
   128
  0
VERTEX
  5
2F0
100
AcDbEntity
  8
6
  6
CONTINUOUS
 62
     7
 48
0.125
100
AcDbVertex
100
AcDb2dVertex
 10
102.978232
 20
62.754244
 30
0.0
 40
0.0
 41
0.0
  0
VERTEX
  5
2F1
100
AcDbEntity
  8
6
  6
CONTINUOUS
 62
     7
 48
0.125
100
AcDbVertex
100
AcDb2dVertex
 10
102.978232
 20
60.469244
 30
0.0
 40
0.0
 41
0.0
  0
SEQEND
  5
2F2
100
AcDbEntity
  8
0
  0
POLYLINE
  5
2F3
100
AcDbEntity
  8
6
  6
CONTINUOUS
 62
     7
 48
0.125
100
AcDb2dPolyline
 66
     1
 10
0.0
 20
0.0
 30
0.0
 70
   128
  0
VERTEX
  5
2F4
100
AcDbEntity
  8
6
  6
CONTINUOUS
 62
     7
 48
0.125
100
AcDbVertex
100
AcDb2dVertex
 10
103.028232
 20
60.719244
 30
0.0
 40
0.0
 41
0.0
  0
VERTEX
  5
2F5
100
AcDbEntity
  8
6
  6
CONTINUOUS
 62
     7
 48
0.125
100
AcDbVertex
100
AcDb2dVertex
 10
102.978232
 20
60.469244
 30
0.0
 40
0.0
 41
0.0
  0
VERTEX
  5
2F6
100
AcDbEntity
  8
6
  6
CONTINUOUS
 62
     7
 48
0.125
100
AcDbVertex
100
AcDb2dVertex
 10
102.928232
 20
60.719244
 30
0.0
 40
0.0
 41
0.0
  0
SEQEND
  5
2F7
100
AcDbEntity
  8
0
  0
POLYLINE
  5
2F8
100
AcDbEntity
  8
6
  6
CONTINUOUS
 62
     7
 48
0.125
100
AcDb2dPolyline
 66
     1
 10
0.0
 20
0.0
 30
0.0
 70
   128
  0
VERTEX
  5
2F9
100
AcDbEntity
  8
6
  6
CONTINUOUS
 62
     7
 48
0.125
100
AcDbVertex
100
AcDb2dVertex
 10
79.954578
 20
59.752607
 30
0.0
 40
0.0
 41
0.0
  0
VERTEX
  5
2FA
100
AcDbEntity
  8
6
  6
CONTINUOUS
 62
     7
 48
0.125
100
AcDbVertex
100
AcDb2dVertex
 10
74.766379
 20
59.752607
 30
0.0
 40
0.0
 41
0.0
  0
SEQEND
  5
2FB
100
AcDbEntity
  8
0
  0
POLYLINE
  5
2FC
100
AcDbEntity
  8
6
  6
CONTINUOUS
 62
     7
 48
0.125
100
AcDb2dPolyline
 66
     1
 10
0.0
 20
0.0
 30
0.0
 70
   128
  0
VERTEX
  5
2FD
100
AcDbEntity
  8
6
  6
CONTINUOUS
 62
     7
 48
0.125
100
AcDbVertex
100
AcDb2dVertex
 10
75.016379
 20
59.702607
 30
0.0
 40
0.0
 41
0.0
  0
VERTEX
  5
2FE
100
AcDbEntity
  8
6
  6
CONTINUOUS
 62
     7
 48
0.125
100
AcDbVertex
100
AcDb2dVertex
 10
74.766379
 20
59.752607
 30
0.0
 40
0.0
 41
0.0
  0
VERTEX
  5
2FF
100
AcDbEntity
  8
6
  6
CONTINUOUS
 62
     7
 48
0.125
100
AcDbVertex
100
AcDb2dVertex
 10
75.016379
 20
59.802607
 30
0.0
 40
0.0
 41
0.0
  0
SEQEND
  5
300
100
AcDbEntity
  8
0
  0
POLYLINE
  5
301
100
AcDbEntity
  8
6
  6
CONTINUOUS
 62
     7
 48
0.125
100
AcDb2dPolyline
 66
     1
 10
0.0
 20
0.0
 30
0.0
 70
   128
  0
VERTEX
  5
302
100
AcDbEntity
  8
6
  6
CONTINUOUS
 62
     7
 48
0.125
100
AcDbVertex
100
AcDb2dVertex
 10
81.328181
 20
59.752607
 30
0.0
 40
0.0
 41
0.0
  0
VERTEX
  5
303
100
AcDbEntity
  8
6
  6
CONTINUOUS
 62
     7
 48
0.125
100
AcDbVertex
100
AcDb2dVertex
 10
86.516379
 20
59.752607
 30
0.0
 40
0.0
 41
0.0
  0
SEQEND
  5
304
100
AcDbEntity
  8
0
  0
POLYLINE
  5
305
100
AcDbEntity
  8
6
  6
CONTINUOUS
 62
     7
 48
0.125
100
AcDb2dPolyline
 66
     1
 10
0.0
 20
0.0
 30
0.0
 70
   128
  0
VERTEX
  5
306
100
AcDbEntity
  8
6
  6
CONTINUOUS
 62
     7
 48
0.125
100
AcDbVertex
100
AcDb2dVertex
 10
86.266379
 20
59.802607
 30
0.0
 40
0.0
 41
0.0
  0
VERTEX
  5
307
100
AcDbEntity
  8
6
  6
CONTINUOUS
 62
     7
 48
0.125
100
AcDbVertex
100
AcDb2dVertex
 10
86.516379
 20
59.752607
 30
0.0
 40
0.0
 41
0.0
  0
VERTEX
  5
308
100
AcDbEntity
  8
6
  6
CONTINUOUS
 62
     7
 48
0.125
100
AcDbVertex
100
AcDb2dVertex
 10
86.266379
 20
59.702607
 30
0.0
 40
0.0
 41
0.0
  0
SEQEND
  5
309
100
AcDbEntity
  8
0
  0
POLYLINE
  5
30A
100
AcDbEntity
  8
6
  6
CONTINUOUS
 62
     7
 48
0.125
100
AcDb2dPolyline
 66
     1
 10
0.0
 20
0.0
 30
0.0
 70
   128
  0
VERTEX
  5
30B
100
AcDbEntity
  8
6
  6
CONTINUOUS
 62
     7
 48
0.125
100
AcDbVertex
100
AcDb2dVertex
 10
85.926645
 20
59.167221
 30
0.0
 40
0.0
 41
0.0
  0
VERTEX
  5
30C
100
AcDbEntity
  8
6
  6
CONTINUOUS
 62
     7
 48
0.125
100
AcDbVertex
100
AcDb2dVertex
 10
74.766379
 20
59.167221
 30
0.0
 40
0.0
 41
0.0
  0
SEQEND
  5
30D
100
AcDbEntity
  8
0
  0
POLYLINE
  5
30E
100
AcDbEntity
  8
6
  6
CONTINUOUS
 62
     7
 48
0.125
100
AcDb2dPolyline
 66
     1
 10
0.0
 20
0.0
 30
0.0
 70
   128
  0
VERTEX
  5
30F
100
AcDbEntity
  8
6
  6
CONTINUOUS
 62
     7
 48
0.125
100
AcDbVertex
100
AcDb2dVertex
 10
75.016379
 20
59.117221
 30
0.0
 40
0.0
 41
0.0
  0
VERTEX
  5
310
100
AcDbEntity
  8
6
  6
CONTINUOUS
 62
     7
 48
0.125
100
AcDbVertex
100
AcDb2dVertex
 10
74.766379
 20
59.167221
 30
0.0
 40
0.0
 41
0.0
  0
VERTEX
  5
311
100
AcDbEntity
  8
6
  6
CONTINUOUS
 62
     7
 48
0.125
100
AcDbVertex
100
AcDb2dVertex
 10
75.016379
 20
59.217221
 30
0.0
 40
0.0
 41
0.0
  0
SEQEND
  5
312
100
AcDbEntity
  8
0
  0
POLYLINE
  5
313
100
AcDbEntity
  8
6
  6
CONTINUOUS
 62
     7
 48
0.125
100
AcDb2dPolyline
 66
     1
 10
0.0
 20
0.0
 30
0.0
 70
   128
  0
VERTEX
  5
314
100
AcDbEntity
  8
6
  6
CONTINUOUS
 62
     7
 48
0.125
100
AcDbVertex
100
AcDb2dVertex
 10
87.106114
 20
59.167221
 30
0.0
 40
0.0
 41
0.0
  0
VERTEX
  5
315
100
AcDbEntity
  8
6
  6
CONTINUOUS
 62
     7
 48
0.125
100
AcDbVertex
100
AcDb2dVertex
 10
98.266379
 20
59.167221
 30
0.0
 40
0.0
 41
0.0
  0
SEQEND
  5
316
100
AcDbEntity
  8
0
  0
POLYLINE
  5
317
100
AcDbEntity
  8
6
  6
CONTINUOUS
 62
     7
 48
0.125
100
AcDb2dPolyline
 66
     1
 10
0.0
 20
0.0
 30
0.0
 70
   128
  0
VERTEX
  5
318
100
AcDbEntity
  8
6
  6
CONTINUOUS
 62
     7
 48
0.125
100
AcDbVertex
100
AcDb2dVertex
 10
98.016379
 20
59.217221
 30
0.0
 40
0.0
 41
0.0
  0
VERTEX
  5
319
100
AcDbEntity
  8
6
  6
CONTINUOUS
 62
     7
 48
0.125
100
AcDbVertex
100
AcDb2dVertex
 10
98.266379
 20
59.167221
 30
0.0
 40
0.0
 41
0.0
  0
VERTEX
  5
31A
100
AcDbEntity
  8
6
  6
CONTINUOUS
 62
     7
 48
0.125
100
AcDbVertex
100
AcDb2dVertex
 10
98.016379
 20
59.117221
 30
0.0
 40
0.0
 41
0.0
  0
SEQEND
  5
31B
100
AcDbEntity
  8
0
  0
POLYLINE
  5
31C
100
AcDbEntity
  8
6
  6
CONTINUOUS
 62
     7
 48
0.125
100
AcDb2dPolyline
 66
     1
 10
0.0
 20
0.0
 30
0.0
 70
   128
  0
VERTEX
  5
31D
100
AcDbEntity
  8
6
  6
CONTINUOUS
 62
     7
 48
0.125
100
AcDbVertex
100
AcDb2dVertex
 10
85.926645
 20
58.455001
 30
0.0
 40
0.0
 41
0.0
  0
VERTEX
  5
31E
100
AcDbEntity
  8
6
  6
CONTINUOUS
 62
     7
 48
0.125
100
AcDbVertex
100
AcDb2dVertex
 10
74.616379
 20
58.455001
 30
0.0
 40
0.0
 41
0.0
  0
SEQEND
  5
31F
100
AcDbEntity
  8
0
  0
POLYLINE
  5
320
100
AcDbEntity
  8
6
  6
CONTINUOUS
 62
     7
 48
0.125
100
AcDb2dPolyline
 66
     1
 10
0.0
 20
0.0
 30
0.0
 70
   128
  0
VERTEX
  5
321
100
AcDbEntity
  8
6
  6
CONTINUOUS
 62
     7
 48
0.125
100
AcDbVertex
100
AcDb2dVertex
 10
74.866379
 20
58.405001
 30
0.0
 40
0.0
 41
0.0
  0
VERTEX
  5
322
100
AcDbEntity
  8
6
  6
CONTINUOUS
 62
     7
 48
0.125
100
AcDbVertex
100
AcDb2dVertex
 10
74.616379
 20
58.455001
 30
0.0
 40
0.0
 41
0.0
  0
VERTEX
  5
323
100
AcDbEntity
  8
6
  6
CONTINUOUS
 62
     7
 48
0.125
100
AcDbVertex
100
AcDb2dVertex
 10
74.866379
 20
58.505001
 30
0.0
 40
0.0
 41
0.0
  0
SEQEND
  5
324
100
AcDbEntity
  8
0
  0
POLYLINE
  5
325
100
AcDbEntity
  8
6
  6
CONTINUOUS
 62
     7
 48
0.125
100
AcDb2dPolyline
 66
     1
 10
0.0
 20
0.0
 30
0.0
 70
   128
  0
VERTEX
  5
326
100
AcDbEntity
  8
6
  6
CONTINUOUS
 62
     7
 48
0.125
100
AcDbVertex
100
AcDb2dVertex
 10
87.106114
 20
58.455001
 30
0.0
 40
0.0
 41
0.0
  0
VERTEX
  5
327
100
AcDbEntity
  8
6
  6
CONTINUOUS
 62
     7
 48
0.125
100
AcDbVertex
100
AcDb2dVertex
 10
98.416379
 20
58.455001
 30
0.0
 40
0.0
 41
0.0
  0
SEQEND
  5
328
100
AcDbEntity
  8
0
  0
POLYLINE
  5
329
100
AcDbEntity
  8
6
  6
CONTINUOUS
 62
     7
 48
0.125
100
AcDb2dPolyline
 66
     1
 10
0.0
 20
0.0
 30
0.0
 70
   128
  0
VERTEX
  5
32A
100
AcDbEntity
  8
6
  6
CONTINUOUS
 62
     7
 48
0.125
100
AcDbVertex
100
AcDb2dVertex
 10
98.166379
 20
58.505001
 30
0.0
 40
0.0
 41
0.0
  0
VERTEX
  5
32B
100
AcDbEntity
  8
6
  6
CONTINUOUS
 62
     7
 48
0.125
100
AcDbVertex
100
AcDb2dVertex
 10
98.416379
 20
58.455001
 30
0.0
 40
0.0
 41
0.0
  0
VERTEX
  5
32C
100
AcDbEntity
  8
6
  6
CONTINUOUS
 62
     7
 48
0.125
100
AcDbVertex
100
AcDb2dVertex
 10
98.166379
 20
58.405001
 30
0.0
 40
0.0
 41
0.0
  0
SEQEND
  5
32D
100
AcDbEntity
  8
0
  0
ENDSEC
  0
SECTION
  2
OBJECTS
  0
DICTIONARY
  5
19
100
AcDbDictionary
  3
ACAD_GROUP
350
1A
  3
ACAD_MLINESTYLE
350
1B
  0
DICTIONARY
  5
1A
102
{ACAD_REACTORS
330
19
102
}
100
AcDbDictionary
  0
DICTIONARY
  5
1B
102
{ACAD_REACTORS
330
19
102
}
100
AcDbDictionary
  3
STANDARD
350
1C
  0
MLINESTYLE
  5
1C
102
{ACAD_REACTORS
330
1B
102
}
100
AcDbMlineStyle
  2
STANDARD
 70
     0
  3

 62
     0
 51
90.0
 52
90.0
 71
     2
 49
0.5
 62
   256
  6
BYLAYER
 49
-0.5
 62
   256
  6
BYLAYER
  0
ENDSEC
  0
EOF
