  0
SECTION
  2
HEADER
  9
$ACADVER
  1
AC1009
  9
$INSBASE
 10
0.0
 20
0.0
 30
0.0
  9
$EXTMIN
 10
-13.23960001
 20
-1.000000000000002
 30
-0.00000001
  9
$EXTMAX
 10
13.23960001
 20
11.31049032057194
 30
0.00000001
  9
$LIMMIN
 10
0.0
 20
0.0
  9
$LIMMAX
 10
12.0
 20
9.0
  9
$ORTHOMODE
 70
     0
  9
$REGENMODE
 70
     1
  9
$FILLMODE
 70
     1
  9
$QTEXTMODE
 70
     0
  9
$MIRRTEXT
 70
     1
  9
$DRAGMODE
 70
     2
  9
$LTSCALE
 40
1.0
  9
$OSMODE
 70
     8
  9
$ATTMODE
 70
     1
  9
$TEXTSIZE
 40
0.2
  9
$TRACEWID
 40
0.05
  9
$TEXTSTYLE
  7
STANDARD
  9
$CLAYER
  8
0
  9
$CELTYPE
  6
BYLAYER
  9
$CECOLOR
 62
   256
  9
$DIMSCALE
 40
1.0
  9
$DIMASZ
 40
0.18
  9
$DIMEXO
 40
0.0625
  9
$DIMDLI
 40
0.38
  9
$DIMRND
 40
0.0
  9
$DIMDLE
 40
0.0
  9
$DIMEXE
 40
0.18
  9
$DIMTP
 40
0.0
  9
$DIMTM
 40
0.0
  9
$DIMTXT
 40
0.18
  9
$DIMCEN
 40
0.09
  9
$DIMTSZ
 40
0.0
  9
$DIMTOL
 70
     0
  9
$DIMLIM
 70
     0
  9
$DIMTIH
 70
     1
  9
$DIMTOH
 70
     1
  9
$DIMSE1
 70
     0
  9
$DIMSE2
 70
     0
  9
$DIMTAD
 70
     0
  9
$DIMZIN
 70
     0
  9
$DIMBLK
  1

  9
$DIMASO
 70
     1
  9
$DIMSHO
 70
     1
  9
$DIMPOST
  1

  9
$DIMAPOST
  1

  9
$DIMALT
 70
     0
  9
$DIMALTD
 70
     2
  9
$DIMALTF
 40
25.399999999999999
  9
$DIMLFAC
 40
1.0
  9
$DIMTOFL
 70
     0
  9
$DIMTVP
 40
0.0
  9
$DIMTIX
 70
     0
  9
$DIMSOXD
 70
     0
  9
$DIMSAH
 70
     0
  9
$DIMBLK1
  1

  9
$DIMBLK2
  1

  9
$DIMSTYLE
  2
STANDARD
  9
$DIMCLRD
 70
     0
  9
$DIMCLRE
 70
     0
  9
$DIMCLRT
 70
     0
  9
$DIMTFAC
 40
1.0
  9
$DIMGAP
 40
0.09
  9
$LUNITS
 70
     2
  9
$LUPREC
 70
     4
  9
$SKETCHINC
 40
0.1
  9
$FILLETRAD
 40
0.25
  9
$AUNITS
 70
     0
  9
$AUPREC
 70
     0
  9
$MENU
  1
.
  9
$ELEVATION
 40
0.0
  9
$PELEVATION
 40
0.0
  9
$THICKNESS
 40
0.0
  9
$LIMCHECK
 70
     0
  9
$BLIPMODE
 70
     0
  9
$CHAMFERA
 40
0.5
  9
$CHAMFERB
 40
0.5
  9
$SKPOLY
 70
     0
  9
$TDCREATE
 40
2451675.0213088999
  9
$TDUPDATE
 40
2451685.8663050691
  9
$TDINDWG
 40
0.0271709028
  9
$TDUSRTIMER
 40
0.027170787
  9
$USRTIMER
 70
     1
  9
$ANGBASE
 50
0.0
  9
$ANGDIR
 70
     0
  9
$PDMODE
 70
     0
  9
$PDSIZE
 40
0.0
  9
$PLINEWID
 40
0.0
  9
$COORDS
 70
     1
  9
$SPLFRAME
 70
     0
  9
$SPLINETYPE
 70
     6
  9
$SPLINESEGS
 70
     8
  9
$ATTDIA
 70
     0
  9
$ATTREQ
 70
     1
  9
$HANDLING
 70
 12289
  9
$HANDSEED
  5
632
  9
$SURFTAB1
 70
     6
  9
$SURFTAB2
 70
     6
  9
$SURFTYPE
 70
     6
  9
$SURFU
 70
     6
  9
$SURFV
 70
     6
  9
$UCSNAME
  2

  9
$UCSORG
 10
0.0
 20
0.0
 30
0.0
  9
$UCSXDIR
 10
1.0
 20
0.0
 30
0.0
  9
$UCSYDIR
 10
0.0
 20
1.0
 30
0.0
  9
$PUCSNAME
  2

  9
$PUCSORG
 10
0.0
 20
0.0
 30
0.0
  9
$PUCSXDIR
 10
1.0
 20
0.0
 30
0.0
  9
$PUCSYDIR
 10
0.0
 20
1.0
 30
0.0
  9
$USERI1
 70
     0
  9
$USERI2
 70
     0
  9
$USERI3
 70
     0
  9
$USERI4
 70
     0
  9
$USERI5
 70
     0
  9
$USERR1
 40
0.0
  9
$USERR2
 40
0.0
  9
$USERR3
 40
0.0
  9
$USERR4
 40
0.0
  9
$USERR5
 40
0.0
  9
$WORLDVIEW
 70
     1
  9
$SHADEDGE
 70
     3
  9
$SHADEDIF
 70
    70
  9
$TILEMODE
 70
     1
  9
$MAXACTVP
 70
    64
  9
$PLIMCHECK
 70
     0
  9
$PEXTMIN
 10
1.0000000000000000E+020
 20
1.0000000000000000E+020
 30
1.0000000000000000E+020
  9
$PEXTMAX
 10
-1.0000000000000000E+020
 20
-1.0000000000000000E+020
 30
-1.0000000000000000E+020
  9
$PLIMMIN
 10
0.0
 20
0.0
  9
$PLIMMAX
 10
12.0
 20
9.0
  9
$UNITMODE
 70
     0
  9
$VISRETAIN
 70
     1
  9
$PLINEGEN
 70
     0
  9
$PSLTSCALE
 70
     1
  0
ENDSEC
  0
SECTION
  2
TABLES
  0
TABLE
  2
VPORT
 70
     3
  0
VPORT
  2
*ACTIVE
 70
     0
 10
0.0
 20
0.0
 11
1.0
 21
1.0
 12
-0.0580707437211601
 22
5.0647364274093114
 13
0.0
 23
0.0
 14
0.5
 24
0.5
 15
0.5
 25
0.5
 16
0.0
 26
0.0
 36
1.0
 17
0.0
 27
0.0
 37
0.0
 40
17.287891098089322
 41
1.598532494758909
 42
50.0
 43
0.0
 44
0.0
 50
0.0
 51
0.0
 71
     0
 72
   100
 73
     1
 74
     3
 75
     0
 76
     0
 77
     0
 78
     0
  0
ENDTAB
  0
TABLE
  2
LTYPE
 70
    16
  0
LTYPE
  2
CONTINUOUS
 70
     0
  3
Solid line
 72
    65
 73
     0
 40
0.0
  0
LTYPE
  2
HIDDEN
 70
     0
  3
Hidden __ __ __ __ __ __ __ __ __ __ __ __ __ _
 72
    65
 73
     2
 40
0.375
 49
0.25
 49
-0.125
  0
LTYPE
  2
PHANTOM2
 70
     0
  3
Phantom (.5x) ___ _ _ ___ _ _ ___ _ _ ___ _ _
 72
    65
 73
     6
 40
1.25
 49
0.625
 49
-0.125
 49
0.125
 49
-0.125
 49
0.125
 49
-0.125
  0
LTYPE
  2
CENTER
 70
     0
  3
Center ____ _ ____ _ ____ _ ____ _ ____ _ ____
 72
    65
 73
     4
 40
2.0
 49
1.25
 49
-0.25
 49
0.25
 49
-0.25
  0
LTYPE
  2
AMCONSTR
 70
     0
  3
_______________________
 72
    65
 73
     2
 40
9999.0
 49
9999.0
 49
0.0
  0
LTYPE
  2
HIDDEN2
 70
     0
  3
Hidden (.5x) _ _ _ _ _ _ _ _ _ _ _ _ _ _ _ _ _
 72
    65
 73
     2
 40
0.1875
 49
0.125
 49
-0.0625
  0
LTYPE
  2
CENTER2
 70
     0
  3
Center (.5x) ___ _ ___ _ ___ _ ___ _ ___ _ ___
 72
    65
 73
     4
 40
1.125
 49
0.75
 49
-0.125
 49
0.125
 49
-0.125
  0
LTYPE
  2
AMZIGZAG2
 70
     0
  3
/\/-/\/-/\/-/\/-/\/-/\/
 72
    65
 73
     2
 40
0.4401
 49
0.0001
 49
-0.4400000000000001
  0
ENDTAB
  0
TABLE
  2
LAYER
 70
     1
  0
LAYER
  2
0
 70
     0
 62
     7
  6
CONTINUOUS
  0
ENDTAB
  0
TABLE
  2
STYLE
 70
     2
  0
STYLE
  2
STANDARD
 70
     0
 40
0.0
 41
1.0
 50
0.0
 71
     0
 42
0.2
  3
txt
  4

  0
STYLE
  2

 70
     1
 40
0.0
 41
1.0
 50
0.0
 71
     0
 42
0.2
  3
ltypeshp.shx
  4

  0
ENDTAB
  0
TABLE
  2
VIEW
 70
     0
  0
ENDTAB
  0
TABLE
  2
UCS
 70
     0
  0
ENDTAB
  0
TABLE
  2
APPID
 70
    11
  0
APPID
  2
ACAD
 70
     0
  0
APPID
  2
MCAD_NO_VIS
 70
     0
  0
APPID
  2
ACAD_TEMP_GRAPHIC
 70
     0
  0
APPID
  2
AD_DRAW
 70
     0
  0
APPID
  2
ACATTRIBSERVICES
 70
     0
  0
APPID
  2
ASURF_PCURVE_APPNAME
 70
     0
  0
APPID
  2
GENIUS_GENDIM_13
 70
     0
  0
APPID
  2
GENIUS_GENDTOL_13
 70
     0
  0
APPID
  2
GENIUS_GE3DTOL_13
 70
     0
  0
APPID
  2
DESIGNERASSEMBLIES
 70
     0
  0
APPID
  2
ACADM_DIM_EDIT
 70
     0
  0
ENDTAB
  0
TABLE
  2
DIMSTYLE
 70
     1
  0
DIMSTYLE
  2
STANDARD
 70
     0
  3

  4

  5

  6

  7

 40
1.0
 41
0.18
 42
0.0625
 43
0.38
 44
0.18
 45
0.0
 46
0.0
 47
0.0
 48
0.0
140
0.18
141
0.09
142
0.0
143
25.399999999999999
144
1.0
145
0.0
146
1.0
147
0.09
 71
     0
 72
     0
 73
     1
 74
     1
 75
     0
 76
     0
 77
     0
 78
     0
170
     0
171
     2
172
     0
173
     0
174
     0
175
     0
176
     0
177
     0
178
     0
  0
ENDTAB
  0
ENDSEC
  0
SECTION
  2
BLOCKS
  0
BLOCK
  8
0
  2
$MODEL_SPACE
 70
     0
 10
0.0
 20
0.0
 30
0.0
  3
$MODEL_SPACE
  1

  0
ENDBLK
  5
21
  8
0
  0
BLOCK
 67
     1
  8
0
  2
$PAPER_SPACE
 70
     0
 10
0.0
 20
0.0
 30
0.0
  3
$PAPER_SPACE
  1

  0
ENDBLK
  5
1D
 67
     1
  8
0
  0
BLOCK
  8
0
  2
*U1
 70
     1
 10
0.0
 20
0.0
 30
0.0
  3
*U1
  1

  0
ENDBLK
  5
CC
  8
0
  0
BLOCK
  8
0
  2
*X3
 70
     1
 10
0.0
 20
0.0
 30
0.0
  3
*X3
  1

  0
LINE
  5
1AB
  8
0
 62
     0
 10
8.9878832842599845
 20
-1.000000000000002
 30
0.0
 11
9.0
 21
-0.9878832842599845
 31
0.0
  0
LINE
  5
1AC
  8
0
 62
     0
 10
8.9702056147303182
 20
-1.0000000000000011
 30
0.0
 11
9.0
 21
-0.9702056147303209
 31
0.0
  0
LINE
  5
1AD
  8
0
 62
     0
 10
8.9525279452006572
 20
-1.0000000000000011
 30
0.0
 11
9.0
 21
-0.9525279452006572
 31
0.0
  0
LINE
  5
1AE
  8
0
 62
     0
 10
8.9348502756709927
 20
-1.0000000000000011
 30
0.0
 11
9.0
 21
-0.9348502756709926
 31
0.0
  0
LINE
  5
1AF
  8
0
 62
     0
 10
8.9171726061413281
 20
-1.0000000000000011
 30
0.0
 11
9.0
 21
-0.9171726061413307
 31
0.0
  0
LINE
  5
1B0
  8
0
 62
     0
 10
8.8994949366116671
 20
-1.0
 30
0.0
 11
9.0
 21
-0.8994949366116662
 31
0.0
  0
LINE
  5
1B1
  8
0
 62
     0
 10
8.8818172670820008
 20
-1.0000000000000011
 30
0.0
 11
9.0
 21
-0.8818172670820025
 31
0.0
  0
LINE
  5
1B2
  8
0
 62
     0
 10
8.864139597552338
 20
-1.0
 30
0.0
 11
8.989139597552338
 21
-0.875
 31
0.0
  0
LINE
  5
1B3
  8
0
 62
     0
 10
8.8464619280226735
 20
-1.0000000000000011
 30
0.0
 11
8.9714619280226753
 21
-0.8749999999999991
 31
0.0
  0
LINE
  5
1B4
  8
0
 62
     0
 10
8.8287842584930107
 20
-1.0
 30
0.0
 11
8.9537842584930125
 21
-0.8750000000000008
 31
0.0
  0
LINE
  5
1B5
  8
0
 62
     0
 10
8.8111065889633462
 20
-1.0000000000000011
 30
0.0
 11
8.9361065889633462
 21
-0.875
 31
0.0
  0
LINE
  5
1B6
  8
0
 62
     0
 10
8.7934289194336834
 20
-1.0000000000000011
 30
0.0
 11
8.9184289194336834
 21
-0.8750000000000008
 31
0.0
  0
LINE
  5
1B7
  8
0
 62
     0
 10
8.7757512499040171
 20
-1.0
 30
0.0
 11
8.9007512499040207
 21
-0.875
 31
0.0
  0
LINE
  5
1B8
  8
0
 62
     0
 10
8.7580735803743561
 20
-1.0
 30
0.0
 11
8.8830735803743561
 21
-0.8750000000000008
 31
0.0
  0
LINE
  5
1B9
  8
0
 62
     0
 10
8.7403959108446934
 20
-1.0
 30
0.0
 11
8.8653959108446934
 21
-0.8749999999999996
 31
0.0
  0
LINE
  5
1BA
  8
0
 62
     0
 10
8.7227182413150288
 20
-1.0
 30
0.0
 11
8.8477182413150288
 21
-0.8750000000000008
 31
0.0
  0
LINE
  5
1BB
  8
0
 62
     0
 10
8.7050405717853643
 20
-1.0
 30
0.0
 11
8.8300405717853661
 21
-0.875
 31
0.0
  0
LINE
  5
1BC
  8
0
 62
     0
 10
8.6873629022557015
 20
-1.0
 30
0.0
 11
8.8123629022557033
 21
-0.8750000000000003
 31
0.0
  0
LINE
  5
1BD
  8
0
 62
     0
 10
8.6696852327260352
 20
-1.0000000000000011
 30
0.0
 11
8.7946852327260387
 21
-0.8749999999999996
 31
0.0
  0
LINE
  5
1BE
  8
0
 62
     0
 10
8.6520075631963742
 20
-1.0000000000000011
 30
0.0
 11
8.7770075631963742
 21
-0.8750000000000008
 31
0.0
  0
LINE
  5
1BF
  8
0
 62
     0
 10
8.6343298936667114
 20
-1.0
 30
0.0
 11
8.7593298936667114
 21
-0.875
 31
0.0
  0
LINE
  5
1C0
  8
0
 62
     0
 10
8.6166522241370487
 20
-1.0
 30
0.0
 11
8.7416522241370487
 21
-0.8750000000000003
 31
0.0
  0
LINE
  5
1C1
  8
0
 62
     0
 10
8.5989745546073841
 20
-1.0
 30
0.0
 11
8.7239745546073841
 21
-0.8749999999999996
 31
0.0
  0
LINE
  5
1C2
  8
0
 62
     0
 10
8.5812968850777196
 20
-1.0
 30
0.0
 11
8.7062968850777196
 21
-0.8750000000000008
 31
0.0
  0
LINE
  5
1C3
  8
0
 62
     0
 10
8.5636192155480551
 20
-1.0
 30
0.0
 11
8.6886192155480551
 21
-0.8750000000000003
 31
0.0
  0
LINE
  5
1C4
  8
0
 62
     0
 10
8.5459415460183923
 20
-1.0
 30
0.0
 11
8.6709415460183941
 21
-0.8750000000000003
 31
0.0
  0
LINE
  5
1C5
  8
0
 62
     0
 10
8.5282638764887277
 20
-1.0000000000000011
 30
0.0
 11
8.6532638764887295
 21
-0.8750000000000008
 31
0.0
  0
LINE
  5
1C6
  8
0
 62
     0
 10
8.5105862069590632
 20
-1.0000000000000011
 30
0.0
 11
8.6355862069590632
 21
-0.8750000000000008
 31
0.0
  0
LINE
  5
1C7
  8
0
 62
     0
 10
8.4929085374294004
 20
-1.0000000000000011
 30
0.0
 11
8.6179085374294004
 21
-0.8750000000000003
 31
0.0
  0
LINE
  5
1C8
  8
0
 62
     0
 10
8.4752308678997341
 20
-1.0000000000000011
 30
0.0
 11
8.6002308678997377
 21
-0.8750000000000003
 31
0.0
  0
LINE
  5
1C9
  8
0
 62
     0
 10
8.4575531983700731
 20
-1.0
 30
0.0
 11
8.5825531983700731
 21
-0.8750000000000008
 31
0.0
  0
LINE
  5
1CA
  8
0
 62
     0
 10
8.4398755288404104
 20
-0.9999999999999996
 30
0.0
 11
8.5648755288404104
 21
-0.875
 31
0.0
  0
LINE
  5
1CB
  8
0
 62
     0
 10
8.4221978593107458
 20
-1.0
 30
0.0
 11
8.5471978593107458
 21
-0.8750000000000003
 31
0.0
  0
LINE
  5
1CC
  8
0
 62
     0
 10
8.4045201897810831
 20
-1.0
 30
0.0
 11
8.5295201897810831
 21
-0.875
 31
0.0
  0
LINE
  5
1CD
  8
0
 62
     0
 10
8.3868425202514185
 20
-1.0
 30
0.0
 11
8.5118425202514203
 21
-0.8750000000000008
 31
0.0
  0
LINE
  5
1CE
  8
0
 62
     0
 10
8.3691648507217558
 20
-1.0
 30
0.0
 11
8.4941648507217558
 21
-0.8749999999999996
 31
0.0
  0
LINE
  5
1CF
  8
0
 62
     0
 10
8.3514871811920912
 20
-1.0000000000000011
 30
0.0
 11
8.4764871811920912
 21
-0.8750000000000008
 31
0.0
  0
LINE
  5
1D0
  8
0
 62
     0
 10
8.3338095116624267
 20
-1.0
 30
0.0
 11
8.4588095116624284
 21
-0.875
 31
0.0
  0
LINE
  5
1D1
  8
0
 62
     0
 10
8.3161318421327657
 20
-1.0
 30
0.0
 11
8.4411318421327657
 21
-0.8750000000000003
 31
0.0
  0
LINE
  5
1D2
  8
0
 62
     0
 10
8.2984541726031011
 20
-0.9999999999999996
 30
0.0
 11
8.4234541726031011
 21
-0.8749999999999996
 31
0.0
  0
LINE
  5
1D3
  8
0
 62
     0
 10
8.2807765030734366
 20
-1.0
 30
0.0
 11
8.4057765030734366
 21
-0.8750000000000008
 31
0.0
  0
LINE
  5
1D4
  8
0
 62
     0
 10
8.2630988335437738
 20
-0.9999999999999996
 30
0.0
 11
8.3880988335437738
 21
-0.875
 31
0.0
  0
LINE
  5
1D5
  8
0
 62
     0
 10
8.2454211640141093
 20
-1.0
 30
0.0
 11
8.3704211640141111
 21
-0.8750000000000003
 31
0.0
  0
LINE
  5
1D6
  8
0
 62
     0
 10
8.2277434944844465
 20
-1.0
 30
0.0
 11
8.3527434944844465
 21
-0.8749999999999996
 31
0.0
  0
LINE
  5
1D7
  8
0
 62
     0
 10
8.2100658249547802
 20
-1.0000000000000011
 30
0.0
 11
8.3350658249547802
 21
-0.8750000000000008
 31
0.0
  0
LINE
  5
1D8
  8
0
 62
     0
 10
8.1923881554251192
 20
-1.0
 30
0.0
 11
8.3173881554251192
 21
-0.875
 31
0.0
  0
LINE
  5
1D9
  8
0
 62
     0
 10
8.1747104858954565
 20
-1.0
 30
0.0
 11
8.2997104858954565
 21
-0.8750000000000003
 31
0.0
  0
LINE
  5
1DA
  8
0
 62
     0
 10
8.1570328163657901
 20
-1.0
 30
0.0
 11
8.2820328163657901
 21
-0.8749999999999996
 31
0.0
  0
LINE
  5
1DB
  8
0
 62
     0
 10
8.1393551468361274
 20
-1.0
 30
0.0
 11
8.2643551468361274
 21
-0.8750000000000008
 31
0.0
  0
LINE
  5
1DC
  8
0
 62
     0
 10
8.1216774773064628
 20
-1.0
 30
0.0
 11
8.2466774773064646
 21
-0.875
 31
0.0
  0
LINE
  5
1DD
  8
0
 62
     0
 10
8.1039998077768001
 20
-1.0
 30
0.0
 11
8.2289998077768018
 21
-0.8750000000000003
 31
0.0
  0
LINE
  5
1DE
  8
0
 62
     0
 10
8.0863221382471355
 20
-1.0000000000000011
 30
0.0
 11
8.2113221382471373
 21
-0.8749999999999996
 31
0.0
  0
LINE
  5
1DF
  8
0
 62
     0
 10
8.0686444687174728
 20
-1.0000000000000011
 30
0.0
 11
8.1936444687174728
 21
-0.8750000000000008
 31
0.0
  0
LINE
  5
1E0
  8
0
 62
     0
 10
8.0509667991878082
 20
-1.0000000000000011
 30
0.0
 11
8.1759667991878082
 21
-0.875
 31
0.0
  0
LINE
  5
1E1
  8
0
 62
     0
 10
8.0332891296581437
 20
-1.0
 30
0.0
 11
8.1582891296581455
 21
-0.8749999999999996
 31
0.0
  0
LINE
  5
1E2
  8
0
 62
     0
 10
8.0156114601284827
 20
-1.0
 30
0.0
 11
8.1406114601284827
 21
-0.875
 31
0.0
  0
LINE
  5
1E3
  8
0
 62
     0
 10
8.0
 20
-0.9979337905988182
 30
0.0
 11
8.1229337905988181
 21
-0.875
 31
0.0
  0
LINE
  5
1E4
  8
0
 62
     0
 10
8.0
 20
-0.9802561210691544
 30
0.0
 11
8.1052561210691554
 21
-0.8749999999999996
 31
0.0
  0
LINE
  5
1E5
  8
0
 62
     0
 10
8.0
 20
-0.9625784515394904
 30
0.0
 11
8.0875784515394908
 21
-0.875
 31
0.0
  0
LINE
  5
1E6
  8
0
 62
     0
 10
8.0
 20
-0.9449007820098277
 30
0.0
 11
8.0699007820098281
 21
-0.875
 31
0.0
  0
LINE
  5
1E7
  8
0
 62
     0
 10
8.0
 20
-0.9272231124801635
 30
0.0
 11
8.0522231124801635
 21
-0.8749999999999996
 31
0.0
  0
LINE
  5
1E8
  8
0
 62
     0
 10
8.0
 20
-0.9095454429504998
 30
0.0
 11
8.0345454429505008
 21
-0.8749999999999996
 31
0.0
  0
LINE
  5
1E9
  8
0
 62
     0
 10
8.0
 20
-0.8918677734208358
 30
0.0
 11
8.0168677734208362
 21
-0.875
 31
0.0
  0
LINE
  5
1EA
  8
0
 62
     0
 10
6.9903066274079881
 20
-1.0
 30
0.0
 11
7.0
 21
-0.9903066274079881
 31
0.0
  0
LINE
  5
1EB
  8
0
 62
     0
 10
6.9726289578783236
 20
-1.0
 30
0.0
 11
7.0
 21
-0.9726289578783244
 31
0.0
  0
LINE
  5
1EC
  8
0
 62
     0
 10
6.9549512883486599
 20
-1.0
 30
0.0
 11
7.0
 21
-0.9549512883486602
 31
0.0
  0
LINE
  5
1ED
  8
0
 62
     0
 10
6.9372736188189963
 20
-1.0
 30
0.0
 11
7.0
 21
-0.9372736188189971
 31
0.0
  0
LINE
  5
1EE
  8
0
 62
     0
 10
6.9195959492893317
 20
-1.0
 30
0.0
 11
7.0
 21
-0.9195959492893335
 31
0.0
  0
LINE
  5
1EF
  8
0
 62
     0
 10
6.901918279759669
 20
-1.0
 30
0.0
 11
7.0
 21
-0.9019182797596698
 31
0.0
  0
LINE
  5
1F0
  8
0
 62
     0
 10
6.8842406102300053
 20
-1.0
 30
0.0
 11
7.0
 21
-0.8842406102300056
 31
0.0
  0
LINE
  5
1F1
  8
0
 62
     0
 10
6.8665629407003417
 20
-1.0
 30
0.0
 11
6.9915629407003408
 21
-0.8750000000000003
 31
0.0
  0
LINE
  5
1F2
  8
0
 62
     0
 10
6.848885271170678
 20
-1.0
 30
0.0
 11
6.973885271170678
 21
-0.875
 31
0.0
  0
LINE
  5
1F3
  8
0
 62
     0
 10
6.8312076016410144
 20
-1.0
 30
0.0
 11
6.9562076016410153
 21
-0.875
 31
0.0
  0
LINE
  5
1F4
  8
0
 62
     0
 10
6.8135299321113498
 20
-1.0
 30
0.0
 11
6.9385299321113498
 21
-0.8750000000000003
 31
0.0
  0
LINE
  5
1F5
  8
0
 62
     0
 10
6.7958522625816862
 20
-1.0
 30
0.0
 11
6.9208522625816871
 21
-0.8750000000000003
 31
0.0
  0
LINE
  5
1F6
  8
0
 62
     0
 10
6.7781745930520234
 20
-1.0
 30
0.0
 11
6.9031745930520234
 21
-0.875
 31
0.0
  0
LINE
  5
1F7
  8
0
 62
     0
 10
6.7604969235223598
 20
-1.0
 30
0.0
 11
6.8854969235223598
 21
-0.875
 31
0.0
  0
LINE
  5
1F8
  8
0
 62
     0
 10
6.7428192539926961
 20
-1.0
 30
0.0
 11
6.8678192539926961
 21
-0.875
 31
0.0
  0
LINE
  5
1F9
  8
0
 62
     0
 10
6.7251415844630333
 20
-1.0
 30
0.0
 11
6.8501415844630316
 21
-0.8750000000000003
 31
0.0
  0
LINE
  5
1FA
  8
0
 62
     0
 10
6.7074639149333679
 20
-1.0
 30
0.0
 11
6.8324639149333679
 21
-0.8750000000000003
 31
0.0
  0
LINE
  5
1FB
  8
0
 62
     0
 10
6.6897862454037051
 20
-1.0
 30
0.0
 11
6.814786245403706
 21
-0.875
 31
0.0
  0
LINE
  5
1FC
  8
0
 62
     0
 10
6.6721085758740406
 20
-1.0
 30
0.0
 11
6.7971085758740406
 21
-0.875
 31
0.0
  0
LINE
  5
1FD
  8
0
 62
     0
 10
6.654430906344377
 20
-1.0
 30
0.0
 11
6.779430906344377
 21
-0.8750000000000003
 31
0.0
  0
LINE
  5
1FE
  8
0
 62
     0
 10
6.6367532368147142
 20
-1.0
 30
0.0
 11
6.7617532368147142
 21
-0.8750000000000003
 31
0.0
  0
LINE
  5
1FF
  8
0
 62
     0
 10
6.6190755672850496
 20
-1.0
 30
0.0
 11
6.7440755672850514
 21
-0.875
 31
0.0
  0
LINE
  5
200
  8
0
 62
     0
 10
6.601397897755386
 20
-0.9999999999999996
 30
0.0
 11
6.726397897755386
 21
-0.8749999999999996
 31
0.0
  0
LINE
  5
201
  8
0
 62
     0
 10
6.5837202282257232
 20
-1.0
 30
0.0
 11
6.7087202282257232
 21
-0.875
 31
0.0
  0
LINE
  5
202
  8
0
 62
     0
 10
6.5660425586960587
 20
-1.0
 30
0.0
 11
6.6910425586960587
 21
-0.875
 31
0.0
  0
LINE
  5
203
  8
0
 62
     0
 10
6.548364889166395
 20
-1.0
 30
0.0
 11
6.673364889166395
 21
-0.875
 31
0.0
  0
LINE
  5
204
  8
0
 62
     0
 10
6.5306872196367323
 20
-1.0
 30
0.0
 11
6.6556872196367323
 21
-0.8749999999999996
 31
0.0
  0
LINE
  5
205
  8
0
 62
     0
 10
6.5130095501070677
 20
-1.0
 30
0.0
 11
6.6380095501070668
 21
-0.8750000000000003
 31
0.0
  0
LINE
  5
206
  8
0
 62
     0
 10
6.4953318805774041
 20
-1.0
 30
0.0
 11
6.6203318805774041
 21
-0.8750000000000003
 31
0.0
  0
LINE
  5
207
  8
0
 62
     0
 10
6.4776542110477413
 20
-1.0
 30
0.0
 11
6.6026542110477413
 21
-0.875
 31
0.0
  0
LINE
  5
208
  8
0
 62
     0
 10
6.4599765415180759
 20
-1.0
 30
0.0
 11
6.5849765415180768
 21
-0.875
 31
0.0
  0
LINE
  5
209
  8
0
 62
     0
 10
6.4422988719884131
 20
-0.9999999999999996
 30
0.0
 11
6.5672988719884131
 21
-0.8750000000000003
 31
0.0
  0
LINE
  5
20A
  8
0
 62
     0
 10
6.4246212024587503
 20
-1.0
 30
0.0
 11
6.5496212024587486
 21
-0.8750000000000003
 31
0.0
  0
LINE
  5
20B
  8
0
 62
     0
 10
6.4069435329290849
 20
-1.0
 30
0.0
 11
6.5319435329290849
 21
-0.875
 31
0.0
  0
LINE
  5
20C
  8
0
 62
     0
 10
6.389265863399423
 20
-1.0
 30
0.0
 11
6.514265863399423
 21
-0.875
 31
0.0
  0
LINE
  5
20D
  8
0
 62
     0
 10
6.3715881938697576
 20
-1.0
 30
0.0
 11
6.4965881938697576
 21
-0.8750000000000003
 31
0.0
  0
LINE
  5
20E
  8
0
 62
     0
 10
6.353910524340094
 20
-1.0
 30
0.0
 11
6.478910524340094
 21
-0.8750000000000003
 31
0.0
  0
LINE
  5
20F
  8
0
 62
     0
 10
6.3362328548104312
 20
-1.0
 30
0.0
 11
6.4612328548104312
 21
-0.8750000000000003
 31
0.0
  0
LINE
  5
210
  8
0
 62
     0
 10
6.3185551852807658
 20
-1.0
 30
0.0
 11
6.4435551852807684
 21
-0.875
 31
0.0
  0
LINE
  5
211
  8
0
 62
     0
 10
6.300877515751103
 20
-1.0
 30
0.0
 11
6.425877515751103
 21
-0.875
 31
0.0
  0
LINE
  5
212
  8
0
 62
     0
 10
6.2831998462214402
 20
-1.0
 30
0.0
 11
6.4081998462214402
 21
-0.8750000000000003
 31
0.0
  0
LINE
  5
213
  8
0
 62
     0
 10
6.2655221766917757
 20
-1.0
 30
0.0
 11
6.3905221766917757
 21
-0.8750000000000003
 31
0.0
  0
LINE
  5
214
  8
0
 62
     0
 10
6.247844507162112
 20
-1.0
 30
0.0
 11
6.3728445071621129
 21
-0.875
 31
0.0
  0
LINE
  5
215
  8
0
 62
     0
 10
6.2301668376324493
 20
-1.0
 30
0.0
 11
6.3551668376324493
 21
-0.875
 31
0.0
  0
LINE
  5
216
  8
0
 62
     0
 10
6.2124891681027847
 20
-1.0
 30
0.0
 11
6.3374891681027847
 21
-0.8750000000000003
 31
0.0
  0
LINE
  5
217
  8
0
 62
     0
 10
6.1948114985731211
 20
-1.0
 30
0.0
 11
6.3198114985731211
 21
-0.875
 31
0.0
  0
LINE
  5
218
  8
0
 62
     0
 10
6.1771338290434583
 20
-1.0
 30
0.0
 11
6.3021338290434592
 21
-0.8749999999999996
 31
0.0
  0
LINE
  5
219
  8
0
 62
     0
 10
6.1594561595137938
 20
-0.9999999999999996
 30
0.0
 11
6.2844561595137938
 21
-0.8749999999999996
 31
0.0
  0
LINE
  5
21A
  8
0
 62
     0
 10
6.141778489984131
 20
-1.0
 30
0.0
 11
6.266778489984131
 21
-0.8749999999999996
 31
0.0
  0
LINE
  5
21B
  8
0
 62
     0
 10
6.1241008204544674
 20
-1.0
 30
0.0
 11
6.2491008204544674
 21
-0.875
 31
0.0
  0
LINE
  5
21C
  8
0
 62
     0
 10
6.1064231509248028
 20
-1.0
 30
0.0
 11
6.2314231509248028
 21
-0.875
 31
0.0
  0
LINE
  5
21D
  8
0
 62
     0
 10
6.08874548139514
 20
-1.0
 30
0.0
 11
6.21374548139514
 21
-0.8749999999999996
 31
0.0
  0
LINE
  5
21E
  8
0
 62
     0
 10
6.0710678118654764
 20
-0.9999999999999996
 30
0.0
 11
6.1960678118654773
 21
-0.8749999999999996
 31
0.0
  0
LINE
  5
21F
  8
0
 62
     0
 10
6.0533901423358119
 20
-1.0
 30
0.0
 11
6.1783901423358119
 21
-0.875
 31
0.0
  0
LINE
  5
220
  8
0
 62
     0
 10
6.0357124728061482
 20
-1.0
 30
0.0
 11
6.1607124728061491
 21
-0.875
 31
0.0
  0
LINE
  5
221
  8
0
 62
     0
 10
6.0180348032764854
 20
-1.0
 30
0.0
 11
6.1430348032764854
 21
-0.8749999999999996
 31
0.0
  0
LINE
  5
222
  8
0
 62
     0
 10
6.00035713374682
 20
-1.0
 30
0.0
 11
6.1253571337468209
 21
-0.8749999999999996
 31
0.0
  0
LINE
  5
223
  8
0
 62
     0
 10
6.0
 20
-0.9826794642171577
 30
0.0
 11
6.1076794642171581
 21
-0.875
 31
0.0
  0
LINE
  5
224
  8
0
 62
     0
 10
6.0
 20
-0.9650017946874935
 30
0.0
 11
6.0900017946874927
 21
-0.875
 31
0.0
  0
LINE
  5
225
  8
0
 62
     0
 10
6.0
 20
-0.9473241251578304
 30
0.0
 11
6.0723241251578299
 21
-0.875
 31
0.0
  0
LINE
  5
226
  8
0
 62
     0
 10
6.0
 20
-0.9296464556281666
 30
0.0
 11
6.0546464556281672
 21
-0.8749999999999996
 31
0.0
  0
LINE
  5
227
  8
0
 62
     0
 10
6.0
 20
-0.9119687860985031
 30
0.0
 11
6.0369687860985026
 21
-0.8749999999999996
 31
0.0
  0
LINE
  5
228
  8
0
 62
     0
 10
6.0
 20
-0.8942911165688393
 30
0.0
 11
6.0192911165688381
 21
-0.875
 31
0.0
  0
LINE
  5
229
  8
0
 62
     0
 10
6.0
 20
-0.8766134470391758
 30
0.0
 11
6.0016134470391762
 21
-0.875
 31
0.0
  0
LINE
  5
22A
  8
0
 62
     0
 10
4.9927299705559891
 20
-1.0
 30
0.0
 11
5.0
 21
-0.9927299705559914
 31
0.0
  0
LINE
  5
22B
  8
0
 62
     0
 10
4.9750523010263272
 20
-1.0
 30
0.0
 11
5.0
 21
-0.9750523010263275
 31
0.0
  0
LINE
  5
22C
  8
0
 62
     0
 10
4.9573746314966618
 20
-1.0
 30
0.0
 11
5.0
 21
-0.9573746314966635
 31
0.0
  0
LINE
  5
22D
  8
0
 62
     0
 10
4.939696961966999
 20
-1.0
 30
0.0
 11
5.0
 21
-0.9396969619669999
 31
0.0
  0
LINE
  5
22E
  8
0
 62
     0
 10
4.9220192924373354
 20
-1.0
 30
0.0
 11
5.0
 21
-0.9220192924373362
 31
0.0
  0
LINE
  5
22F
  8
0
 62
     0
 10
4.9043416229076717
 20
-1.0
 30
0.0
 11
5.0
 21
-0.9043416229076726
 31
0.0
  0
LINE
  5
230
  8
0
 62
     0
 10
4.8866639533780081
 20
-1.0
 30
0.0
 11
5.0
 21
-0.8866639533780089
 31
0.0
  0
LINE
  5
231
  8
0
 62
     0
 10
4.8689862838483453
 20
-1.0
 30
0.0
 11
4.9939862838483453
 21
-0.875
 31
0.0
  0
LINE
  5
232
  8
0
 62
     0
 10
4.8513086143186799
 20
-1.0
 30
0.0
 11
4.9763086143186808
 21
-0.875
 31
0.0
  0
LINE
  5
233
  8
0
 62
     0
 10
4.8336309447890171
 20
-1.0
 30
0.0
 11
4.958630944789018
 21
-0.875
 31
0.0
  0
LINE
  5
234
  8
0
 62
     0
 10
4.8159532752593526
 20
-1.0
 30
0.0
 11
4.9409532752593543
 21
-0.8749999999999996
 31
0.0
  0
LINE
  5
235
  8
0
 62
     0
 10
4.7982756057296889
 20
-1.0
 30
0.0
 11
4.9232756057296898
 21
-0.875
 31
0.0
  0
LINE
  5
236
  8
0
 62
     0
 10
4.7805979362000262
 20
-1.0
 30
0.0
 11
4.905597936200027
 21
-0.875
 31
0.0
  0
LINE
  5
237
  8
0
 62
     0
 10
4.7629202666703616
 20
-1.0
 30
0.0
 11
4.8879202666703634
 21
-0.875
 31
0.0
  0
LINE
  5
238
  8
0
 62
     0
 10
4.745242597140698
 20
-1.0
 30
0.0
 11
4.8702425971406988
 21
-0.8749999999999996
 31
0.0
  0
LINE
  5
239
  8
0
 62
     0
 10
4.7275649276110352
 20
-1.0
 30
0.0
 11
4.8525649276110361
 21
-0.8749999999999998
 31
0.0
  0
LINE
  5
23A
  8
0
 62
     0
 10
4.7098872580813707
 20
-1.0
 30
0.0
 11
4.8348872580813724
 21
-0.875
 31
0.0
  0
LINE
  5
23B
  8
0
 62
     0
 10
4.692209588551707
 20
-1.0
 30
0.0
 11
4.8172095885517079
 21
-0.875
 31
0.0
  0
LINE
  5
23C
  8
0
 62
     0
 10
4.6745319190220442
 20
-1.0
 30
0.0
 11
4.7995319190220442
 21
-0.8750000000000001
 31
0.0
  0
LINE
  5
23D
  8
0
 62
     0
 10
4.6568542494923797
 20
-1.0
 30
0.0
 11
4.7818542494923806
 21
-0.8749999999999998
 31
0.0
  0
LINE
  5
23E
  8
0
 62
     0
 10
4.639176579962716
 20
-1.0
 30
0.0
 11
4.764176579962716
 21
-0.8750000000000003
 31
0.0
  0
LINE
  5
23F
  8
0
 62
     0
 10
4.6214989104330533
 20
-1.0
 30
0.0
 11
4.7464989104330533
 21
-0.8750000000000007
 31
0.0
  0
LINE
  5
240
  8
0
 62
     0
 10
4.6038212409033887
 20
-1.0
 30
0.0
 11
4.7288212409033887
 21
-0.8750000000000001
 31
0.0
  0
LINE
  5
241
  8
0
 62
     0
 10
4.5861435713737251
 20
-1.0
 30
0.0
 11
4.7111435713737251
 21
-0.8750000000000001
 31
0.0
  0
LINE
  5
242
  8
0
 62
     0
 10
4.5684659018440623
 20
-1.0
 30
0.0
 11
4.6934659018440623
 21
-0.8750000000000003
 31
0.0
  0
LINE
  5
243
  8
0
 62
     0
 10
4.5507882323143978
 20
-0.9999999999999998
 30
0.0
 11
4.6757882323143978
 21
-0.8750000000000001
 31
0.0
  0
LINE
  5
244
  8
0
 62
     0
 10
4.533110562784735
 20
-1.0
 30
0.0
 11
4.658110562784735
 21
-0.8749999999999996
 31
0.0
  0
LINE
  5
245
  8
0
 62
     0
 10
4.5154328932550714
 20
-0.9999999999999998
 30
0.0
 11
4.6404328932550714
 21
-0.8749999999999998
 31
0.0
  0
LINE
  5
246
  8
0
 62
     0
 10
4.4977552237254068
 20
-1.0
 30
0.0
 11
4.6227552237254068
 21
-0.875
 31
0.0
  0
LINE
  5
247
  8
0
 62
     0
 10
4.480077554195744
 20
-0.9999999999999998
 30
0.0
 11
4.605077554195744
 21
-0.875
 31
0.0
  0
LINE
  5
248
  8
0
 62
     0
 10
4.4623998846660804
 20
-1.0
 30
0.0
 11
4.5873998846660804
 21
-0.8750000000000001
 31
0.0
  0
LINE
  5
249
  8
0
 62
     0
 10
4.444722215136415
 20
-1.0
 30
0.0
 11
4.5697222151364159
 21
-0.8749999999999998
 31
0.0
  0
LINE
  5
24A
  8
0
 62
     0
 10
4.4270445456067522
 20
-1.0
 30
0.0
 11
4.5520445456067531
 21
-0.8749999999999998
 31
0.0
  0
LINE
  5
24B
  8
0
 62
     0
 10
4.4093668760770877
 20
-1.0
 30
0.0
 11
4.5343668760770894
 21
-0.875
 31
0.0
  0
LINE
  5
24C
  8
0
 62
     0
 10
4.391689206547424
 20
-1.0
 30
0.0
 11
4.5166892065474249
 21
-0.8750000000000001
 31
0.0
  0
LINE
  5
24D
  8
0
 62
     0
 10
4.3740115370177612
 20
-1.0
 30
0.0
 11
4.4990115370177621
 21
-0.8749999999999996
 31
0.0
  0
LINE
  5
24E
  8
0
 62
     0
 10
4.3563338674880967
 20
-1.0
 30
0.0
 11
4.4813338674880976
 21
-0.8749999999999998
 31
0.0
  0
LINE
  5
24F
  8
0
 62
     0
 10
4.338656197958433
 20
-1.0
 30
0.0
 11
4.4636561979584339
 21
-0.875
 31
0.0
  0
LINE
  5
250
  8
0
 62
     0
 10
4.3209785284287703
 20
-1.0
 30
0.0
 11
4.4459785284287712
 21
-0.875
 31
0.0
  0
LINE
  5
251
  8
0
 62
     0
 10
4.3033008588991057
 20
-1.0
 30
0.0
 11
4.4283008588991057
 21
-0.8750000000000001
 31
0.0
  0
LINE
  5
252
  8
0
 62
     0
 10
4.2856231893694421
 20
-1.0
 30
0.0
 11
4.410623189369443
 21
-0.8749999999999998
 31
0.0
  0
LINE
  5
253
  8
0
 62
     0
 10
4.2679455198397793
 20
-1.0
 30
0.0
 11
4.3929455198397802
 21
-0.8749999999999998
 31
0.0
  0
LINE
  5
254
  8
0
 62
     0
 10
4.2502678503101148
 20
-1.0
 30
0.0
 11
4.3752678503101157
 21
-0.875
 31
0.0
  0
LINE
  5
255
  8
0
 62
     0
 10
4.232590180780452
 20
-1.0
 30
0.0
 11
4.357590180780452
 21
-0.8750000000000001
 31
0.0
  0
LINE
  5
256
  8
0
 62
     0
 10
4.2149125112507884
 20
-1.0
 30
0.0
 11
4.3399125112507893
 21
-0.8749999999999998
 31
0.0
  0
LINE
  5
257
  8
0
 62
     0
 10
4.1972348417211238
 20
-1.0
 30
0.0
 11
4.3222348417211238
 21
-0.8749999999999998
 31
0.0
  0
LINE
  5
258
  8
0
 62
     0
 10
4.1795571721914602
 20
-1.0
 30
0.0
 11
4.3045571721914611
 21
-0.875
 31
0.0
  0
LINE
  5
259
  8
0
 62
     0
 10
4.1618795026617974
 20
-1.0
 30
0.0
 11
4.2868795026617974
 21
-0.8750000000000001
 31
0.0
  0
LINE
  5
25A
  8
0
 62
     0
 10
4.144201833132132
 20
-1.0
 30
0.0
 11
4.2692018331321337
 21
-0.8749999999999996
 31
0.0
  0
LINE
  5
25B
  8
0
 62
     0
 10
4.1265241636024701
 20
-1.0
 30
0.0
 11
4.2515241636024701
 21
-0.8749999999999992
 31
0.0
  0
LINE
  5
25C
  8
0
 62
     0
 10
4.1088464940728047
 20
-1.0
 30
0.0
 11
4.2338464940728073
 21
-0.8749999999999996
 31
0.0
  0
LINE
  5
25D
  8
0
 62
     0
 10
4.0911688245431419
 20
-1.0
 30
0.0
 11
4.2161688245431419
 21
-0.8749999999999996
 31
0.0
  0
LINE
  5
25E
  8
0
 62
     0
 10
4.0734911550134782
 20
-1.0
 30
0.0
 11
4.1984911550134791
 21
-0.8749999999999998
 31
0.0
  0
LINE
  5
25F
  8
0
 62
     0
 10
4.0558134854838146
 20
-1.0
 30
0.0
 11
4.1808134854838146
 21
-0.8749999999999992
 31
0.0
  0
LINE
  5
260
  8
0
 62
     0
 10
4.0381358159541501
 20
-1.0
 30
0.0
 11
4.1631358159541518
 21
-0.8749999999999992
 31
0.0
  0
LINE
  5
261
  8
0
 62
     0
 10
4.0204581464244873
 20
-1.0
 30
0.0
 11
4.1454581464244882
 21
-0.8749999999999996
 31
0.0
  0
LINE
  5
262
  8
0
 62
     0
 10
4.0027804768948227
 20
-1.0
 30
0.0
 11
4.1277804768948236
 21
-0.8749999999999998
 31
0.0
  0
LINE
  5
263
  8
0
 62
     0
 10
4.0
 20
-0.9851028073651607
 30
0.0
 11
4.1101028073651609
 21
-0.8749999999999991
 31
0.0
  0
LINE
  5
264
  8
0
 62
     0
 10
4.0
 20
-0.9674251378354966
 30
0.0
 11
4.0924251378354981
 21
-0.8749999999999992
 31
0.0
  0
LINE
  5
265
  8
0
 62
     0
 10
4.0
 20
-0.9497474683058333
 30
0.0
 11
4.0747474683058327
 21
-0.8749999999999996
 31
0.0
  0
LINE
  5
266
  8
0
 62
     0
 10
4.0
 20
-0.9320697987761692
 30
0.0
 11
4.057069798776169
 21
-0.8749999999999996
 31
0.0
  0
LINE
  5
267
  8
0
 62
     0
 10
4.0
 20
-0.914392129246506
 30
0.0
 11
4.0393921292465063
 21
-0.8749999999999998
 31
0.0
  0
LINE
  5
268
  8
0
 62
     0
 10
4.0
 20
-0.8967144597168421
 30
0.0
 11
4.0217144597168426
 21
-0.8749999999999992
 31
0.0
  0
LINE
  5
269
  8
0
 62
     0
 10
4.0
 20
-0.8790367901871787
 30
0.0
 11
4.0040367901871781
 21
-0.8749999999999992
 31
0.0
  0
LINE
  5
26A
  8
0
 62
     0
 10
2.9951533137039932
 20
-1.0
 30
0.0
 11
3.0
 21
-0.9951533137039939
 31
0.0
  0
LINE
  5
26B
  8
0
 62
     0
 10
2.9774756441743291
 20
-1.0
 30
0.0
 11
3.0
 21
-0.9774756441743301
 31
0.0
  0
LINE
  5
26C
  8
0
 62
     0
 10
2.959797974644665
 20
-1.0
 30
0.0
 11
3.0
 21
-0.9597979746446664
 31
0.0
  0
LINE
  5
26D
  8
0
 62
     0
 10
2.9421203051150022
 20
-1.0
 30
0.0
 11
3.0
 21
-0.9421203051150028
 31
0.0
  0
LINE
  5
26E
  8
0
 62
     0
 10
2.9244426355853381
 20
-1.0
 30
0.0
 11
3.0
 21
-0.924442635585339
 31
0.0
  0
LINE
  5
26F
  8
0
 62
     0
 10
2.9067649660556749
 20
-1.0
 30
0.0
 11
3.0
 21
-0.9067649660556755
 31
0.0
  0
LINE
  5
270
  8
0
 62
     0
 10
2.8890872965260108
 20
-1.0
 30
0.0
 11
3.0
 21
-0.8890872965260117
 31
0.0
  0
LINE
  5
271
  8
0
 62
     0
 10
2.8714096269963472
 20
-1.0
 30
0.0
 11
2.9964096269963481
 21
-0.875
 31
0.0
  0
LINE
  5
272
  8
0
 62
     0
 10
2.8537319574666831
 20
-1.0
 30
0.0
 11
2.978731957466684
 21
-0.8750000000000001
 31
0.0
  0
LINE
  5
273
  8
0
 62
     0
 10
2.8360542879370199
 20
-1.0
 30
0.0
 11
2.9610542879370199
 21
-0.8750000000000001
 31
0.0
  0
LINE
  5
274
  8
0
 62
     0
 10
2.8183766184073562
 20
-1.0
 30
0.0
 11
2.9433766184073571
 21
-0.875
 31
0.0
  0
LINE
  5
275
  8
0
 62
     0
 10
2.800698948877693
 20
-1.0
 30
0.0
 11
2.925698948877693
 21
-0.875
 31
0.0
  0
LINE
  5
276
  8
0
 62
     0
 10
2.7830212793480289
 20
-1.0
 30
0.0
 11
2.9080212793480289
 21
-0.8749999999999998
 31
0.0
  0
LINE
  5
277
  8
0
 62
     0
 10
2.7653436098183648
 20
-1.0
 30
0.0
 11
2.8903436098183661
 21
-0.875
 31
0.0
  0
LINE
  5
278
  8
0
 62
     0
 10
2.747665940288702
 20
-1.0
 30
0.0
 11
2.872665940288702
 21
-0.8750000000000001
 31
0.0
  0
LINE
  5
279
  8
0
 62
     0
 10
2.7299882707590371
 20
-1.0
 30
0.0
 11
2.8549882707590379
 21
-0.8750000000000003
 31
0.0
  0
LINE
  5
27A
  8
0
 62
     0
 10
2.7123106012293738
 20
-1.0
 30
0.0
 11
2.8373106012293738
 21
-0.8750000000000001
 31
0.0
  0
LINE
  5
27B
  8
0
 62
     0
 10
2.6946329316997102
 20
-1.0
 30
0.0
 11
2.8196329316997111
 21
-0.8750000000000001
 31
0.0
  0
LINE
  5
27C
  8
0
 62
     0
 10
2.6769552621700461
 20
-1.0
 30
0.0
 11
2.801955262170047
 21
-0.8750000000000001
 31
0.0
  0
LINE
  5
27D
  8
0
 62
     0
 10
2.6592775926403829
 20
-1.0
 30
0.0
 11
2.7842775926403829
 21
-0.8750000000000001
 31
0.0
  0
LINE
  5
27E
  8
0
 62
     0
 10
2.6415999231107188
 20
-1.0
 30
0.0
 11
2.7665999231107201
 21
-0.8750000000000001
 31
0.0
  0
LINE
  5
27F
  8
0
 62
     0
 10
2.623922253581056
 20
-1.0
 30
0.0
 11
2.748922253581056
 21
-0.8750000000000003
 31
0.0
  0
LINE
  5
280
  8
0
 62
     0
 10
2.6062445840513919
 20
-1.0
 30
0.0
 11
2.7312445840513919
 21
-0.8750000000000003
 31
0.0
  0
LINE
  5
281
  8
0
 62
     0
 10
2.5885669145217278
 20
-1.0
 30
0.0
 11
2.7135669145217278
 21
-0.8750000000000001
 31
0.0
  0
LINE
  5
282
  8
0
 62
     0
 10
2.5708892449920651
 20
-1.0
 30
0.0
 11
2.6958892449920651
 21
-0.8750000000000001
 31
0.0
  0
LINE
  5
283
  8
0
 62
     0
 10
2.553211575462401
 20
-1.0
 30
0.0
 11
2.678211575462401
 21
-0.8750000000000001
 31
0.0
  0
LINE
  5
284
  8
0
 62
     0
 10
2.5355339059327369
 20
-1.0
 30
0.0
 11
2.6605339059327369
 21
-0.8750000000000001
 31
0.0
  0
LINE
  5
285
  8
0
 62
     0
 10
2.5178562364030741
 20
-1.0
 30
0.0
 11
2.6428562364030741
 21
-0.8750000000000001
 31
0.0
  0
LINE
  5
286
  8
0
 62
     0
 10
2.50017856687341
 20
-1.0
 30
0.0
 11
2.62517856687341
 21
-0.8750000000000001
 31
0.0
  0
LINE
  5
287
  8
0
 62
     0
 10
2.4825008973437459
 20
-1.0
 30
0.0
 11
2.6075008973437459
 21
-0.8750000000000001
 31
0.0
  0
LINE
  5
288
  8
0
 62
     0
 10
2.4648232278140831
 20
-1.0
 30
0.0
 11
2.5898232278140831
 21
-0.8750000000000003
 31
0.0
  0
LINE
  5
289
  8
0
 62
     0
 10
2.447145558284419
 20
-1.0
 30
0.0
 11
2.572145558284419
 21
-0.8750000000000003
 31
0.0
  0
LINE
  5
28A
  8
0
 62
     0
 10
2.4294678887547549
 20
-1.0
 30
0.0
 11
2.5544678887547549
 21
-0.8750000000000003
 31
0.0
  0
LINE
  5
28B
  8
0
 62
     0
 10
2.4117902192250922
 20
-1.0
 30
0.0
 11
2.5367902192250908
 21
-0.8750000000000003
 31
0.0
  0
LINE
  5
28C
  8
0
 62
     0
 10
2.3941125496954281
 20
-0.9999999999999998
 30
0.0
 11
2.5191125496954281
 21
-0.8750000000000001
 31
0.0
  0
LINE
  5
28D
  8
0
 62
     0
 10
2.376434880165764
 20
-0.9999999999999998
 30
0.0
 11
2.501434880165764
 21
-0.8750000000000001
 31
0.0
  0
LINE
  5
28E
  8
0
 62
     0
 10
2.3587572106360999
 20
-1.0
 30
0.0
 11
2.4837572106361012
 21
-0.8750000000000001
 31
0.0
  0
LINE
  5
28F
  8
0
 62
     0
 10
2.3410795411064371
 20
-1.0
 30
0.0
 11
2.4660795411064371
 21
-0.8750000000000001
 31
0.0
  0
LINE
  5
290
  8
0
 62
     0
 10
2.323401871576773
 20
-1.0
 30
0.0
 11
2.448401871576773
 21
-0.8750000000000001
 31
0.0
  0
LINE
  5
291
  8
0
 62
     0
 10
2.3057242020471089
 20
-1.0
 30
0.0
 11
2.4307242020471098
 21
-0.8750000000000001
 31
0.0
  0
LINE
  5
292
  8
0
 62
     0
 10
2.2880465325174462
 20
-1.0
 30
0.0
 11
2.4130465325174462
 21
-0.8750000000000001
 31
0.0
  0
LINE
  5
293
  8
0
 62
     0
 10
2.2703688629877821
 20
-1.0
 30
0.0
 11
2.3953688629877821
 21
-0.8750000000000001
 31
0.0
  0
LINE
  5
294
  8
0
 62
     0
 10
2.252691193458118
 20
-1.0
 30
0.0
 11
2.377691193458118
 21
-0.8750000000000001
 31
0.0
  0
LINE
  5
295
  8
0
 62
     0
 10
2.2350135239284539
 20
-1.0
 30
0.0
 11
2.3600135239284552
 21
-0.875
 31
0.0
  0
LINE
  5
296
  8
0
 62
     0
 10
2.2173358543987911
 20
-1.0
 30
0.0
 11
2.3423358543987911
 21
-0.8750000000000001
 31
0.0
  0
LINE
  5
297
  8
0
 62
     0
 10
2.199658184869127
 20
-1.0
 30
0.0
 11
2.324658184869127
 21
-0.8750000000000001
 31
0.0
  0
LINE
  5
298
  8
0
 62
     0
 10
2.1819805153394629
 20
-1.0
 30
0.0
 11
2.3069805153394638
 21
-0.8749999999999998
 31
0.0
  0
LINE
  5
299
  8
0
 62
     0
 10
2.1643028458098001
 20
-1.0
 30
0.0
 11
2.2893028458098001
 21
-0.8749999999999998
 31
0.0
  0
LINE
  5
29A
  8
0
 62
     0
 10
2.146625176280136
 20
-1.0
 30
0.0
 11
2.271625176280136
 21
-0.8749999999999998
 31
0.0
  0
LINE
  5
29B
  8
0
 62
     0
 10
2.128947506750472
 20
-1.0
 30
0.0
 11
2.2539475067504728
 21
-0.8749999999999998
 31
0.0
  0
LINE
  5
29C
  8
0
 62
     0
 10
2.1112698372208092
 20
-1.0
 30
0.0
 11
2.2362698372208092
 21
-0.8749999999999998
 31
0.0
  0
LINE
  5
29D
  8
0
 62
     0
 10
2.0935921676911451
 20
-1.0
 30
0.0
 11
2.2185921676911451
 21
-0.8749999999999998
 31
0.0
  0
LINE
  5
29E
  8
0
 62
     0
 10
2.075914498161481
 20
-1.0
 30
0.0
 11
2.2009144981614819
 21
-0.8749999999999998
 31
0.0
  0
LINE
  5
29F
  8
0
 62
     0
 10
2.0582368286318178
 20
-1.0
 30
0.0
 11
2.1832368286318178
 21
-0.8749999999999998
 31
0.0
  0
LINE
  5
2A0
  8
0
 62
     0
 10
2.0405591591021541
 20
-1.0
 30
0.0
 11
2.1655591591021541
 21
-0.875
 31
0.0
  0
LINE
  5
2A1
  8
0
 62
     0
 10
2.02288148957249
 20
-1.0
 30
0.0
 11
2.14788148957249
 21
-0.875
 31
0.0
  0
LINE
  5
2A2
  8
0
 62
     0
 10
2.0052038200428268
 20
-1.0
 30
0.0
 11
2.1302038200428268
 21
-0.875
 31
0.0
  0
LINE
  5
2A3
  8
0
 62
     0
 10
2.0
 20
-0.9875261505131634
 30
0.0
 11
2.1125261505131632
 21
-0.8749999999999998
 31
0.0
  0
LINE
  5
2A4
  8
0
 62
     0
 10
2.0
 20
-0.9698484809834996
 30
0.0
 11
2.0948484809834991
 21
-0.8749999999999996
 31
0.0
  0
LINE
  5
2A5
  8
0
 62
     0
 10
2.0
 20
-0.9521708114538361
 30
0.0
 11
2.0771708114538359
 21
-0.8749999999999996
 31
0.0
  0
LINE
  5
2A6
  8
0
 62
     0
 10
2.0
 20
-0.9344931419241722
 30
0.0
 11
2.0594931419241722
 21
-0.8749999999999996
 31
0.0
  0
LINE
  5
2A7
  8
0
 62
     0
 10
2.0
 20
-0.9168154723945086
 30
0.0
 11
2.041815472394509
 21
-0.8749999999999996
 31
0.0
  0
LINE
  5
2A8
  8
0
 62
     0
 10
2.0
 20
-0.8991378028648449
 30
0.0
 11
2.0241378028648449
 21
-0.8749999999999996
 31
0.0
  0
LINE
  5
2A9
  8
0
 62
     0
 10
2.0
 20
-0.8814601333351813
 30
0.0
 11
2.0064601333351808
 21
-0.8749999999999996
 31
0.0
  0
LINE
  5
2AA
  8
0
 62
     0
 10
0.9975766568519969
 20
-1.0
 30
0.0
 11
1.0
 21
-0.9975766568519969
 31
0.0
  0
LINE
  5
2AB
  8
0
 62
     0
 10
0.9798989873223332
 20
-1.0
 30
0.0
 11
1.0
 21
-0.9798989873223331
 31
0.0
  0
LINE
  5
2AC
  8
0
 62
     0
 10
0.9622213177926695
 20
-1.0
 30
0.0
 11
1.0
 21
-0.9622213177926695
 31
0.0
  0
LINE
  5
2AD
  8
0
 62
     0
 10
0.9445436482630057
 20
-1.0
 30
0.0
 11
1.0
 21
-0.9445436482630057
 31
0.0
  0
LINE
  5
2AE
  8
0
 62
     0
 10
0.9268659787333421
 20
-1.0
 30
0.0
 11
1.0
 21
-0.9268659787333421
 31
0.0
  0
LINE
  5
2AF
  8
0
 62
     0
 10
0.9091883092036784
 20
-1.0
 30
0.0
 11
1.0
 21
-0.9091883092036784
 31
0.0
  0
LINE
  5
2B0
  8
0
 62
     0
 10
0.8915106396740148
 20
-1.0
 30
0.0
 11
1.0
 21
-0.8915106396740146
 31
0.0
  0
LINE
  5
2B1
  8
0
 62
     0
 10
0.8738329701443511
 20
-1.0
 30
0.0
 11
0.9988329701443511
 21
-0.875
 31
0.0
  0
LINE
  5
2B2
  8
0
 62
     0
 10
0.8561553006146873
 20
-1.0
 30
0.0
 11
0.9811553006146873
 21
-0.8750000000000001
 31
0.0
  0
LINE
  5
2B3
  8
0
 62
     0
 10
0.8384776310850236
 20
-1.0
 30
0.0
 11
0.9634776310850236
 21
-0.8750000000000001
 31
0.0
  0
LINE
  5
2B4
  8
0
 62
     0
 10
0.82079996155536
 20
-1.0
 30
0.0
 11
0.94579996155536
 21
-0.8750000000000001
 31
0.0
  0
LINE
  5
2B5
  8
0
 62
     0
 10
0.8031222920256963
 20
-1.0
 30
0.0
 11
0.9281222920256963
 21
-0.8750000000000001
 31
0.0
  0
LINE
  5
2B6
  8
0
 62
     0
 10
0.7854446224960326
 20
-1.0
 30
0.0
 11
0.9104446224960325
 21
-0.8750000000000001
 31
0.0
  0
LINE
  5
2B7
  8
0
 62
     0
 10
0.7677669529663689
 20
-1.0
 30
0.0
 11
0.8927669529663688
 21
-0.8750000000000001
 31
0.0
  0
LINE
  5
2B8
  8
0
 62
     0
 10
0.7500892834367052
 20
-1.0
 30
0.0
 11
0.8750892834367052
 21
-0.875
 31
0.0
  0
LINE
  5
2B9
  8
0
 62
     0
 10
0.7324116139070414
 20
-1.0
 30
0.0
 11
0.8574116139070414
 21
-0.8750000000000001
 31
0.0
  0
LINE
  5
2BA
  8
0
 62
     0
 10
0.7147339443773778
 20
-1.0
 30
0.0
 11
0.8397339443773777
 21
-0.8750000000000001
 31
0.0
  0
LINE
  5
2BB
  8
0
 62
     0
 10
0.6970562748477142
 20
-1.0
 30
0.0
 11
0.822056274847714
 21
-0.875
 31
0.0
  0
LINE
  5
2BC
  8
0
 62
     0
 10
0.6793786053180505
 20
-1.0
 30
0.0
 11
0.8043786053180504
 21
-0.875
 31
0.0
  0
LINE
  5
2BD
  8
0
 62
     0
 10
0.6617009357883869
 20
-1.0
 30
0.0
 11
0.7867009357883869
 21
-0.875
 31
0.0
  0
LINE
  5
2BE
  8
0
 62
     0
 10
0.6440232662587232
 20
-1.0
 30
0.0
 11
0.7690232662587232
 21
-0.8750000000000001
 31
0.0
  0
LINE
  5
2BF
  8
0
 62
     0
 10
0.6263455967290592
 20
-1.0
 30
0.0
 11
0.7513455967290593
 21
-0.8750000000000001
 31
0.0
  0
LINE
  5
2C0
  8
0
 62
     0
 10
0.6086679271993956
 20
-1.0
 30
0.0
 11
0.7336679271993957
 21
-0.8750000000000001
 31
0.0
  0
LINE
  5
2C1
  8
0
 62
     0
 10
0.5909902576697319
 20
-1.0
 30
0.0
 11
0.715990257669732
 21
-0.875
 31
0.0
  0
LINE
  5
2C2
  8
0
 62
     0
 10
0.5733125881400683
 20
-1.0
 30
0.0
 11
0.6983125881400684
 21
-0.875
 31
0.0
  0
LINE
  5
2C3
  8
0
 62
     0
 10
0.5556349186104046
 20
-1.0
 30
0.0
 11
0.6806349186104046
 21
-0.875
 31
0.0
  0
LINE
  5
2C4
  8
0
 62
     0
 10
0.5379572490807411
 20
-1.0
 30
0.0
 11
0.6629572490807411
 21
-0.8750000000000001
 31
0.0
  0
LINE
  5
2C5
  8
0
 62
     0
 10
0.5202795795510771
 20
-1.0
 30
0.0
 11
0.6452795795510772
 21
-0.8750000000000001
 31
0.0
  0
LINE
  5
2C6
  8
0
 62
     0
 10
0.5026019100214134
 20
-1.0
 30
0.0
 11
0.6276019100214136
 21
-0.8750000000000001
 31
0.0
  0
LINE
  5
2C7
  8
0
 62
     0
 10
0.5000000000000001
 20
-0.9849242404917497
 30
0.0
 11
0.6099242404917498
 21
-0.875
 31
0.0
  0
LINE
  5
2C8
  8
0
 62
     0
 10
0.5
 20
-0.967246570962086
 30
0.0
 11
0.5922465709620861
 21
-0.8750000000000001
 31
0.0
  0
LINE
  5
2C9
  8
0
 62
     0
 10
0.5000000000000001
 20
-0.9495689014324225
 30
0.0
 11
0.5745689014324225
 21
-0.8750000000000001
 31
0.0
  0
LINE
  5
2CA
  8
0
 62
     0
 10
0.5000000000000001
 20
-0.9318912319027587
 30
0.0
 11
0.5568912319027588
 21
-0.8750000000000001
 31
0.0
  0
LINE
  5
2CB
  8
0
 62
     0
 10
0.5
 20
-0.9142135623730952
 30
0.0
 11
0.539213562373095
 21
-0.8750000000000001
 31
0.0
  0
LINE
  5
2CC
  8
0
 62
     0
 10
0.5
 20
-0.8965358928434314
 30
0.0
 11
0.5215358928434313
 21
-0.8750000000000001
 31
0.0
  0
LINE
  5
2CD
  8
0
 62
     0
 10
0.5
 20
-0.8788582233137676
 30
0.0
 11
0.5038582233137677
 21
-0.8750000000000001
 31
0.0
  0
ENDBLK
  5
2CF
  8
0
  0
ENDSEC
  0
SECTION
  2
ENTITIES
  0
LINE
  5
F0
  8
0
 10
-11.449999999999999
 20
0.0
 30
0.0
 11
11.449999999999999
 21
0.0
 31
0.0
  0
POINT
  5
F2
  8
0
 10
12.98
 20
1.77
 30
0.0
  0
POINT
  5
F3
  8
0
 10
12.94
 20
2.0
 30
0.0
  0
POINT
  5
F4
  8
0
 10
12.68
 20
3.0
 30
0.0
  0
POINT
  5
F5
  8
0
 10
12.25
 20
4.0
 30
0.0
  0
POINT
  5
F6
  8
0
 10
11.66
 20
5.0
 30
0.0
  0
POINT
  5
F7
  8
0
 10
10.829999999999989
 20
6.0
 30
0.0
  0
POINT
  5
F8
  8
0
 10
9.7799999999999994
 20
7.0
 30
0.0
  0
POINT
  5
F9
  8
0
 10
8.3499999999999996
 20
8.0
 30
0.0
  0
POINT
  5
FA
  8
0
 10
7.4000000000000004
 20
8.5
 30
0.0
  0
POINT
  5
FB
  8
0
 10
6.3300000000000001
 20
9.0
 30
0.0
  0
POINT
  5
FC
  8
0
 10
4.9599999999999991
 20
9.5
 30
0.0
  0
POINT
  5
FD
  8
0
 10
2.9500000000000002
 20
10.0
 30
0.0
  0
POINT
  5
FE
  8
0
 10
0.0
 20
10.23
 30
0.0
  0
POINT
  5
FF
  8
0
 10
-2.9500000000000002
 20
10.0
 30
0.0
  0
POINT
  5
100
  8
0
 10
-4.9599999999999991
 20
9.5
 30
0.0
  0
POINT
  5
101
  8
0
 10
-12.98
 20
1.77
 30
0.0
  0
POINT
  5
102
  8
0
 10
-12.94
 20
2.0
 30
0.0
  0
POINT
  5
103
  8
0
 10
-12.68
 20
3.0
 30
0.0
  0
POINT
  5
104
  8
0
 10
-12.25
 20
4.0
 30
0.0
  0
POINT
  5
105
  8
0
 10
-7.4000000000000004
 20
8.5
 30
0.0
  0
POINT
  5
106
  8
0
 10
-6.3300000000000001
 20
9.0
 30
0.0
  0
POINT
  5
107
  8
0
 10
-8.3499999999999996
 20
8.0
 30
0.0
  0
POINT
  5
108
  8
0
 10
-9.7799999999999994
 20
7.0
 30
0.0
  0
POINT
  5
109
  8
0
 10
-10.829999999999989
 20
6.0
 30
0.0
  0
POINT
  5
10A
  8
0
 10
-11.66
 20
5.0
 30
0.0
  0
LINE
  5
10B
  8
0
 10
-12.19999999999999
 20
0.75
 30
0.0
 11
-12.19999999999999
 21
1.4454135987366521
 31
0.0
  0
POLYLINE
  8
0
  5
2D0
  66
     1
 10
0.000000
 20
0.000000
 30
0.000000
  70
     8
  0
VERTEX
  8
0
  5
2D1
 10
-12.9800
 20
1.77000
 30
0.000000
  70
    32
  0
VERTEX
  8
0
  5
2D2
 10
-12.9735
 20
1.80828
 30
0.000000
  70
    32
  0
VERTEX
  8
0
  5
2D3
 10
-12.9670
 20
1.84656
 30
0.000000
  70
    32
  0
VERTEX
  8
0
  5
2D4
 10
-12.9605
 20
1.88482
 30
0.000000
  70
    32
  0
VERTEX
  8
0
  5
2D5
 10
-12.9538
 20
1.92308
 30
0.000000
  70
    32
  0
VERTEX
  8
0
  5
2D6
 10
-12.9470
 20
1.96131
 30
0.000000
  70
    32
  0
VERTEX
  8
0
  5
2D7
 10
-12.9401
 20
1.99952
 30
0.000000
  70
    32
  0
VERTEX
  8
0
  5
2D8
 10
-12.9330
 20
2.03770
 30
0.000000
  70
    32
  0
VERTEX
  8
0
  5
2D9
 10
-12.9256
 20
2.07585
 30
0.000000
  70
    32
  0
VERTEX
  8
0
  5
2DA
 10
-12.9181
 20
2.11397
 30
0.000000
  70
    32
  0
VERTEX
  8
0
  5
2DB
 10
-12.9104
 20
2.15206
 30
0.000000
  70
    32
  0
VERTEX
  8
0
  5
2DC
 10
-12.9024
 20
2.19010
 30
0.000000
  70
    32
  0
VERTEX
  8
0
  5
2DD
 10
-12.8943
 20
2.22811
 30
0.000000
  70
    32
  0
VERTEX
  8
0
  5
2DE
 10
-12.8860
 20
2.26608
 30
0.000000
  70
    32
  0
VERTEX
  8
0
  5
2DF
 10
-12.8775
 20
2.30401
 30
0.000000
  70
    32
  0
VERTEX
  8
0
  5
2E0
 10
-12.8687
 20
2.34189
 30
0.000000
  70
    32
  0
VERTEX
  8
0
  5
2E1
 10
-12.8598
 20
2.37972
 30
0.000000
  70
    32
  0
VERTEX
  8
0
  5
2E2
 10
-12.8506
 20
2.41751
 30
0.000000
  70
    32
  0
VERTEX
  8
0
  5
2E3
 10
-12.8413
 20
2.45525
 30
0.000000
  70
    32
  0
VERTEX
  8
0
  5
2E4
 10
-12.8317
 20
2.49293
 30
0.000000
  70
    32
  0
VERTEX
  8
0
  5
2E5
 10
-12.8219
 20
2.53056
 30
0.000000
  70
    32
  0
VERTEX
  8
0
  5
2E6
 10
-12.8120
 20
2.56813
 30
0.000000
  70
    32
  0
VERTEX
  8
0
  5
2E7
 10
-12.8018
 20
2.60564
 30
0.000000
  70
    32
  0
VERTEX
  8
0
  5
2E8
 10
-12.7914
 20
2.64309
 30
0.000000
  70
    32
  0
VERTEX
  8
0
  5
2E9
 10
-12.7807
 20
2.68048
 30
0.000000
  70
    32
  0
VERTEX
  8
0
  5
2EA
 10
-12.7699
 20
2.71780
 30
0.000000
  70
    32
  0
VERTEX
  8
0
  5
2EB
 10
-12.7588
 20
2.75506
 30
0.000000
  70
    32
  0
VERTEX
  8
0
  5
2EC
 10
-12.7476
 20
2.79225
 30
0.000000
  70
    32
  0
VERTEX
  8
0
  5
2ED
 10
-12.7361
 20
2.82936
 30
0.000000
  70
    32
  0
VERTEX
  8
0
  5
2EE
 10
-12.7243
 20
2.86640
 30
0.000000
  70
    32
  0
VERTEX
  8
0
  5
2EF
 10
-12.7124
 20
2.90337
 30
0.000000
  70
    32
  0
VERTEX
  8
0
  5
2F0
 10
-12.7002
 20
2.94026
 30
0.000000
  70
    32
  0
VERTEX
  8
0
  5
2F1
 10
-12.6878
 20
2.97708
 30
0.000000
  70
    32
  0
VERTEX
  8
0
  5
2F2
 10
-12.6752
 20
3.01381
 30
0.000000
  70
    32
  0
VERTEX
  8
0
  5
2F3
 10
-12.6624
 20
3.05046
 30
0.000000
  70
    32
  0
VERTEX
  8
0
  5
2F4
 10
-12.6493
 20
3.08703
 30
0.000000
  70
    32
  0
VERTEX
  8
0
  5
2F5
 10
-12.6360
 20
3.12351
 30
0.000000
  70
    32
  0
VERTEX
  8
0
  5
2F6
 10
-12.6225
 20
3.15992
 30
0.000000
  70
    32
  0
VERTEX
  8
0
  5
2F7
 10
-12.6088
 20
3.19625
 30
0.000000
  70
    32
  0
VERTEX
  8
0
  5
2F8
 10
-12.5949
 20
3.23250
 30
0.000000
  70
    32
  0
VERTEX
  8
0
  5
2F9
 10
-12.5808
 20
3.26867
 30
0.000000
  70
    32
  0
VERTEX
  8
0
  5
2FA
 10
-12.5665
 20
3.30477
 30
0.000000
  70
    32
  0
VERTEX
  8
0
  5
2FB
 10
-12.5520
 20
3.34079
 30
0.000000
  70
    32
  0
VERTEX
  8
0
  5
2FC
 10
-12.5373
 20
3.37674
 30
0.000000
  70
    32
  0
VERTEX
  8
0
  5
2FD
 10
-12.5224
 20
3.41261
 30
0.000000
  70
    32
  0
VERTEX
  8
0
  5
2FE
 10
-12.5073
 20
3.44841
 30
0.000000
  70
    32
  0
VERTEX
  8
0
  5
2FF
 10
-12.4921
 20
3.48413
 30
0.000000
  70
    32
  0
VERTEX
  8
0
  5
300
 10
-12.4766
 20
3.51979
 30
0.000000
  70
    32
  0
VERTEX
  8
0
  5
301
 10
-12.4610
 20
3.55537
 30
0.000000
  70
    32
  0
VERTEX
  8
0
  5
302
 10
-12.4452
 20
3.59088
 30
0.000000
  70
    32
  0
VERTEX
  8
0
  5
303
 10
-12.4293
 20
3.62633
 30
0.000000
  70
    32
  0
VERTEX
  8
0
  5
304
 10
-12.4132
 20
3.66170
 30
0.000000
  70
    32
  0
VERTEX
  8
0
  5
305
 10
-12.3969
 20
3.69701
 30
0.000000
  70
    32
  0
VERTEX
  8
0
  5
306
 10
-12.3805
 20
3.73225
 30
0.000000
  70
    32
  0
VERTEX
  8
0
  5
307
 10
-12.3639
 20
3.76742
 30
0.000000
  70
    32
  0
VERTEX
  8
0
  5
308
 10
-12.3472
 20
3.80253
 30
0.000000
  70
    32
  0
VERTEX
  8
0
  5
309
 10
-12.3303
 20
3.83757
 30
0.000000
  70
    32
  0
VERTEX
  8
0
  5
30A
 10
-12.3133
 20
3.87255
 30
0.000000
  70
    32
  0
VERTEX
  8
0
  5
30B
 10
-12.2962
 20
3.90747
 30
0.000000
  70
    32
  0
VERTEX
  8
0
  5
30C
 10
-12.2789
 20
3.94232
 30
0.000000
  70
    32
  0
VERTEX
  8
0
  5
30D
 10
-12.2615
 20
3.97711
 30
0.000000
  70
    32
  0
VERTEX
  8
0
  5
30E
 10
-12.2440
 20
4.01184
 30
0.000000
  70
    32
  0
VERTEX
  8
0
  5
30F
 10
-12.2264
 20
4.04651
 30
0.000000
  70
    32
  0
VERTEX
  8
0
  5
310
 10
-12.2086
 20
4.08111
 30
0.000000
  70
    32
  0
VERTEX
  8
0
  5
311
 10
-12.1907
 20
4.11565
 30
0.000000
  70
    32
  0
VERTEX
  8
0
  5
312
 10
-12.1726
 20
4.15012
 30
0.000000
  70
    32
  0
VERTEX
  8
0
  5
313
 10
-12.1545
 20
4.18452
 30
0.000000
  70
    32
  0
VERTEX
  8
0
  5
314
 10
-12.1362
 20
4.21885
 30
0.000000
  70
    32
  0
VERTEX
  8
0
  5
315
 10
-12.1177
 20
4.25310
 30
0.000000
  70
    32
  0
VERTEX
  8
0
  5
316
 10
-12.0992
 20
4.28727
 30
0.000000
  70
    32
  0
VERTEX
  8
0
  5
317
 10
-12.0804
 20
4.32136
 30
0.000000
  70
    32
  0
VERTEX
  8
0
  5
318
 10
-12.0616
 20
4.35536
 30
0.000000
  70
    32
  0
VERTEX
  8
0
  5
319
 10
-12.0426
 20
4.38928
 30
0.000000
  70
    32
  0
VERTEX
  8
0
  5
31A
 10
-12.0234
 20
4.42311
 30
0.000000
  70
    32
  0
VERTEX
  8
0
  5
31B
 10
-12.0041
 20
4.45684
 30
0.000000
  70
    32
  0
VERTEX
  8
0
  5
31C
 10
-11.9846
 20
4.49049
 30
0.000000
  70
    32
  0
VERTEX
  8
0
  5
31D
 10
-11.9650
 20
4.52403
 30
0.000000
  70
    32
  0
VERTEX
  8
0
  5
31E
 10
-11.9452
 20
4.55748
 30
0.000000
  70
    32
  0
VERTEX
  8
0
  5
31F
 10
-11.9252
 20
4.59082
 30
0.000000
  70
    32
  0
VERTEX
  8
0
  5
320
 10
-11.9051
 20
4.62407
 30
0.000000
  70
    32
  0
VERTEX
  8
0
  5
321
 10
-11.8849
 20
4.65720
 30
0.000000
  70
    32
  0
VERTEX
  8
0
  5
322
 10
-11.8644
 20
4.69022
 30
0.000000
  70
    32
  0
VERTEX
  8
0
  5
323
 10
-11.8438
 20
4.72314
 30
0.000000
  70
    32
  0
VERTEX
  8
0
  5
324
 10
-11.8230
 20
4.75593
 30
0.000000
  70
    32
  0
VERTEX
  8
0
  5
325
 10
-11.8021
 20
4.78862
 30
0.000000
  70
    32
  0
VERTEX
  8
0
  5
326
 10
-11.7809
 20
4.82118
 30
0.000000
  70
    32
  0
VERTEX
  8
0
  5
327
 10
-11.7596
 20
4.85362
 30
0.000000
  70
    32
  0
VERTEX
  8
0
  5
328
 10
-11.7381
 20
4.88593
 30
0.000000
  70
    32
  0
VERTEX
  8
0
  5
329
 10
-11.7164
 20
4.91812
 30
0.000000
  70
    32
  0
VERTEX
  8
0
  5
32A
 10
-11.6946
 20
4.95018
 30
0.000000
  70
    32
  0
VERTEX
  8
0
  5
32B
 10
-11.6725
 20
4.98210
 30
0.000000
  70
    32
  0
VERTEX
  8
0
  5
32C
 10
-11.6502
 20
5.01390
 30
0.000000
  70
    32
  0
VERTEX
  8
0
  5
32D
 10
-11.6278
 20
5.04555
 30
0.000000
  70
    32
  0
VERTEX
  8
0
  5
32E
 10
-11.6052
 20
5.07707
 30
0.000000
  70
    32
  0
VERTEX
  8
0
  5
32F
 10
-11.5824
 20
5.10847
 30
0.000000
  70
    32
  0
VERTEX
  8
0
  5
330
 10
-11.5594
 20
5.13973
 30
0.000000
  70
    32
  0
VERTEX
  8
0
  5
331
 10
-11.5362
 20
5.17086
 30
0.000000
  70
    32
  0
VERTEX
  8
0
  5
332
 10
-11.5128
 20
5.20187
 30
0.000000
  70
    32
  0
VERTEX
  8
0
  5
333
 10
-11.4893
 20
5.23276
 30
0.000000
  70
    32
  0
VERTEX
  8
0
  5
334
 10
-11.4657
 20
5.26352
 30
0.000000
  70
    32
  0
VERTEX
  8
0
  5
335
 10
-11.4418
 20
5.29417
 30
0.000000
  70
    32
  0
VERTEX
  8
0
  5
336
 10
-11.4178
 20
5.32470
 30
0.000000
  70
    32
  0
VERTEX
  8
0
  5
337
 10
-11.3937
 20
5.35511
 30
0.000000
  70
    32
  0
VERTEX
  8
0
  5
338
 10
-11.3694
 20
5.38541
 30
0.000000
  70
    32
  0
VERTEX
  8
0
  5
339
 10
-11.3449
 20
5.41560
 30
0.000000
  70
    32
  0
VERTEX
  8
0
  5
33A
 10
-11.3203
 20
5.44568
 30
0.000000
  70
    32
  0
VERTEX
  8
0
  5
33B
 10
-11.2956
 20
5.47565
 30
0.000000
  70
    32
  0
VERTEX
  8
0
  5
33C
 10
-11.2707
 20
5.50552
 30
0.000000
  70
    32
  0
VERTEX
  8
0
  5
33D
 10
-11.2457
 20
5.53528
 30
0.000000
  70
    32
  0
VERTEX
  8
0
  5
33E
 10
-11.2206
 20
5.56494
 30
0.000000
  70
    32
  0
VERTEX
  8
0
  5
33F
 10
-11.1954
 20
5.59450
 30
0.000000
  70
    32
  0
VERTEX
  8
0
  5
340
 10
-11.1700
 20
5.62397
 30
0.000000
  70
    32
  0
VERTEX
  8
0
  5
341
 10
-11.1445
 20
5.65334
 30
0.000000
  70
    32
  0
VERTEX
  8
0
  5
342
 10
-11.1189
 20
5.68262
 30
0.000000
  70
    32
  0
VERTEX
  8
0
  5
343
 10
-11.0932
 20
5.71180
 30
0.000000
  70
    32
  0
VERTEX
  8
0
  5
344
 10
-11.0674
 20
5.74090
 30
0.000000
  70
    32
  0
VERTEX
  8
0
  5
345
 10
-11.0415
 20
5.76990
 30
0.000000
  70
    32
  0
VERTEX
  8
0
  5
346
 10
-11.0154
 20
5.79883
 30
0.000000
  70
    32
  0
VERTEX
  8
0
  5
347
 10
-10.9893
 20
5.82767
 30
0.000000
  70
    32
  0
VERTEX
  8
0
  5
348
 10
-10.9631
 20
5.85643
 30
0.000000
  70
    32
  0
VERTEX
  8
0
  5
349
 10
-10.9368
 20
5.88510
 30
0.000000
  70
    32
  0
VERTEX
  8
0
  5
34A
 10
-10.9105
 20
5.91371
 30
0.000000
  70
    32
  0
VERTEX
  8
0
  5
34B
 10
-10.8840
 20
5.94223
 30
0.000000
  70
    32
  0
VERTEX
  8
0
  5
34C
 10
-10.8575
 20
5.97068
 30
0.000000
  70
    32
  0
VERTEX
  8
0
  5
34D
 10
-10.8309
 20
5.99907
 30
0.000000
  70
    32
  0
VERTEX
  8
0
  5
34E
 10
-10.8042
 20
6.02738
 30
0.000000
  70
    32
  0
VERTEX
  8
0
  5
34F
 10
-10.7775
 20
6.05562
 30
0.000000
  70
    32
  0
VERTEX
  8
0
  5
350
 10
-10.7507
 20
6.08379
 30
0.000000
  70
    32
  0
VERTEX
  8
0
  5
351
 10
-10.7238
 20
6.11189
 30
0.000000
  70
    32
  0
VERTEX
  8
0
  5
352
 10
-10.6968
 20
6.13991
 30
0.000000
  70
    32
  0
VERTEX
  8
0
  5
353
 10
-10.6698
 20
6.16786
 30
0.000000
  70
    32
  0
VERTEX
  8
0
  5
354
 10
-10.6427
 20
6.19573
 30
0.000000
  70
    32
  0
VERTEX
  8
0
  5
355
 10
-10.6155
 20
6.22352
 30
0.000000
  70
    32
  0
VERTEX
  8
0
  5
356
 10
-10.5883
 20
6.25124
 30
0.000000
  70
    32
  0
VERTEX
  8
0
  5
357
 10
-10.5609
 20
6.27887
 30
0.000000
  70
    32
  0
VERTEX
  8
0
  5
358
 10
-10.5335
 20
6.30643
 30
0.000000
  70
    32
  0
VERTEX
  8
0
  5
359
 10
-10.5060
 20
6.33390
 30
0.000000
  70
    32
  0
VERTEX
  8
0
  5
35A
 10
-10.4785
 20
6.36129
 30
0.000000
  70
    32
  0
VERTEX
  8
0
  5
35B
 10
-10.4508
 20
6.38859
 30
0.000000
  70
    32
  0
VERTEX
  8
0
  5
35C
 10
-10.4231
 20
6.41581
 30
0.000000
  70
    32
  0
VERTEX
  8
0
  5
35D
 10
-10.3953
 20
6.44294
 30
0.000000
  70
    32
  0
VERTEX
  8
0
  5
35E
 10
-10.3674
 20
6.46999
 30
0.000000
  70
    32
  0
VERTEX
  8
0
  5
35F
 10
-10.3395
 20
6.49694
 30
0.000000
  70
    32
  0
VERTEX
  8
0
  5
360
 10
-10.3114
 20
6.52380
 30
0.000000
  70
    32
  0
VERTEX
  8
0
  5
361
 10
-10.2833
 20
6.55058
 30
0.000000
  70
    32
  0
VERTEX
  8
0
  5
362
 10
-10.2551
 20
6.57726
 30
0.000000
  70
    32
  0
VERTEX
  8
0
  5
363
 10
-10.2268
 20
6.60384
 30
0.000000
  70
    32
  0
VERTEX
  8
0
  5
364
 10
-10.1984
 20
6.63034
 30
0.000000
  70
    32
  0
VERTEX
  8
0
  5
365
 10
-10.1699
 20
6.65673
 30
0.000000
  70
    32
  0
VERTEX
  8
0
  5
366
 10
-10.1413
 20
6.68303
 30
0.000000
  70
    32
  0
VERTEX
  8
0
  5
367
 10
-10.1126
 20
6.70923
 30
0.000000
  70
    32
  0
VERTEX
  8
0
  5
368
 10
-10.0839
 20
6.73533
 30
0.000000
  70
    32
  0
VERTEX
  8
0
  5
369
 10
-10.0551
 20
6.76132
 30
0.000000
  70
    32
  0
VERTEX
  8
0
  5
36A
 10
-10.0261
 20
6.78722
 30
0.000000
  70
    32
  0
VERTEX
  8
0
  5
36B
 10
-9.99710
 20
6.81301
 30
0.000000
  70
    32
  0
VERTEX
  8
0
  5
36C
 10
-9.96798
 20
6.83870
 30
0.000000
  70
    32
  0
VERTEX
  8
0
  5
36D
 10
-9.93876
 20
6.86428
 30
0.000000
  70
    32
  0
VERTEX
  8
0
  5
36E
 10
-9.90945
 20
6.88976
 30
0.000000
  70
    32
  0
VERTEX
  8
0
  5
36F
 10
-9.88005
 20
6.91513
 30
0.000000
  70
    32
  0
VERTEX
  8
0
  5
370
 10
-9.85054
 20
6.94039
 30
0.000000
  70
    32
  0
VERTEX
  8
0
  5
371
 10
-9.82094
 20
6.96554
 30
0.000000
  70
    32
  0
VERTEX
  8
0
  5
372
 10
-9.79124
 20
6.99057
 30
0.000000
  70
    32
  0
VERTEX
  8
0
  5
373
 10
-9.76144
 20
7.01550
 30
0.000000
  70
    32
  0
VERTEX
  8
0
  5
374
 10
-9.73154
 20
7.04031
 30
0.000000
  70
    32
  0
VERTEX
  8
0
  5
375
 10
-9.70155
 20
7.06501
 30
0.000000
  70
    32
  0
VERTEX
  8
0
  5
376
 10
-9.67145
 20
7.08959
 30
0.000000
  70
    32
  0
VERTEX
  8
0
  5
377
 10
-9.64126
 20
7.11406
 30
0.000000
  70
    32
  0
VERTEX
  8
0
  5
378
 10
-9.61097
 20
7.13841
 30
0.000000
  70
    32
  0
VERTEX
  8
0
  5
379
 10
-9.58058
 20
7.16265
 30
0.000000
  70
    32
  0
VERTEX
  8
0
  5
37A
 10
-9.55010
 20
7.18677
 30
0.000000
  70
    32
  0
VERTEX
  8
0
  5
37B
 10
-9.51952
 20
7.21078
 30
0.000000
  70
    32
  0
VERTEX
  8
0
  5
37C
 10
-9.48885
 20
7.23467
 30
0.000000
  70
    32
  0
VERTEX
  8
0
  5
37D
 10
-9.45809
 20
7.25844
 30
0.000000
  70
    32
  0
VERTEX
  8
0
  5
37E
 10
-9.42723
 20
7.28209
 30
0.000000
  70
    32
  0
VERTEX
  8
0
  5
37F
 10
-9.39628
 20
7.30563
 30
0.000000
  70
    32
  0
VERTEX
  8
0
  5
380
 10
-9.36523
 20
7.32905
 30
0.000000
  70
    32
  0
VERTEX
  8
0
  5
381
 10
-9.33410
 20
7.35235
 30
0.000000
  70
    32
  0
VERTEX
  8
0
  5
382
 10
-9.30287
 20
7.37552
 30
0.000000
  70
    32
  0
VERTEX
  8
0
  5
383
 10
-9.27156
 20
7.39858
 30
0.000000
  70
    32
  0
VERTEX
  8
0
  5
384
 10
-9.24016
 20
7.42152
 30
0.000000
  70
    32
  0
VERTEX
  8
0
  5
385
 10
-9.20866
 20
7.44434
 30
0.000000
  70
    32
  0
VERTEX
  8
0
  5
386
 10
-9.17708
 20
7.46704
 30
0.000000
  70
    32
  0
VERTEX
  8
0
  5
387
 10
-9.14541
 20
7.48961
 30
0.000000
  70
    32
  0
VERTEX
  8
0
  5
388
 10
-9.11366
 20
7.51207
 30
0.000000
  70
    32
  0
VERTEX
  8
0
  5
389
 10
-9.08181
 20
7.53440
 30
0.000000
  70
    32
  0
VERTEX
  8
0
  5
38A
 10
-9.04989
 20
7.55660
 30
0.000000
  70
    32
  0
VERTEX
  8
0
  5
38B
 10
-9.01787
 20
7.57869
 30
0.000000
  70
    32
  0
VERTEX
  8
0
  5
38C
 10
-8.98578
 20
7.60065
 30
0.000000
  70
    32
  0
VERTEX
  8
0
  5
38D
 10
-8.95360
 20
7.62248
 30
0.000000
  70
    32
  0
VERTEX
  8
0
  5
38E
 10
-8.92133
 20
7.64420
 30
0.000000
  70
    32
  0
VERTEX
  8
0
  5
38F
 10
-8.88899
 20
7.66578
 30
0.000000
  70
    32
  0
VERTEX
  8
0
  5
390
 10
-8.85656
 20
7.68724
 30
0.000000
  70
    32
  0
VERTEX
  8
0
  5
391
 10
-8.82405
 20
7.70858
 30
0.000000
  70
    32
  0
VERTEX
  8
0
  5
392
 10
-8.79146
 20
7.72979
 30
0.000000
  70
    32
  0
VERTEX
  8
0
  5
393
 10
-8.75879
 20
7.75087
 30
0.000000
  70
    32
  0
VERTEX
  8
0
  5
394
 10
-8.72604
 20
7.77182
 30
0.000000
  70
    32
  0
VERTEX
  8
0
  5
395
 10
-8.69321
 20
7.79265
 30
0.000000
  70
    32
  0
VERTEX
  8
0
  5
396
 10
-8.66030
 20
7.81335
 30
0.000000
  70
    32
  0
VERTEX
  8
0
  5
397
 10
-8.62732
 20
7.83392
 30
0.000000
  70
    32
  0
VERTEX
  8
0
  5
398
 10
-8.59426
 20
7.85436
 30
0.000000
  70
    32
  0
VERTEX
  8
0
  5
399
 10
-8.56112
 20
7.87467
 30
0.000000
  70
    32
  0
VERTEX
  8
0
  5
39A
 10
-8.52791
 20
7.89485
 30
0.000000
  70
    32
  0
VERTEX
  8
0
  5
39B
 10
-8.49462
 20
7.91490
 30
0.000000
  70
    32
  0
VERTEX
  8
0
  5
39C
 10
-8.46126
 20
7.93482
 30
0.000000
  70
    32
  0
VERTEX
  8
0
  5
39D
 10
-8.42782
 20
7.95461
 30
0.000000
  70
    32
  0
VERTEX
  8
0
  5
39E
 10
-8.39431
 20
7.97427
 30
0.000000
  70
    32
  0
VERTEX
  8
0
  5
39F
 10
-8.36073
 20
7.99380
 30
0.000000
  70
    32
  0
VERTEX
  8
0
  5
3A0
 10
-8.32708
 20
8.01319
 30
0.000000
  70
    32
  0
VERTEX
  8
0
  5
3A1
 10
-8.29336
 20
8.03245
 30
0.000000
  70
    32
  0
VERTEX
  8
0
  5
3A2
 10
-8.25956
 20
8.05159
 30
0.000000
  70
    32
  0
VERTEX
  8
0
  5
3A3
 10
-8.22571
 20
8.07061
 30
0.000000
  70
    32
  0
VERTEX
  8
0
  5
3A4
 10
-8.19179
 20
8.08950
 30
0.000000
  70
    32
  0
VERTEX
  8
0
  5
3A5
 10
-8.15780
 20
8.10829
 30
0.000000
  70
    32
  0
VERTEX
  8
0
  5
3A6
 10
-8.12376
 20
8.12696
 30
0.000000
  70
    32
  0
VERTEX
  8
0
  5
3A7
 10
-8.08966
 20
8.14552
 30
0.000000
  70
    32
  0
VERTEX
  8
0
  5
3A8
 10
-8.05551
 20
8.16399
 30
0.000000
  70
    32
  0
VERTEX
  8
0
  5
3A9
 10
-8.02130
 20
8.18235
 30
0.000000
  70
    32
  0
VERTEX
  8
0
  5
3AA
 10
-7.98704
 20
8.20062
 30
0.000000
  70
    32
  0
VERTEX
  8
0
  5
3AB
 10
-7.95273
 20
8.21880
 30
0.000000
  70
    32
  0
VERTEX
  8
0
  5
3AC
 10
-7.91837
 20
8.23690
 30
0.000000
  70
    32
  0
VERTEX
  8
0
  5
3AD
 10
-7.88398
 20
8.25491
 30
0.000000
  70
    32
  0
VERTEX
  8
0
  5
3AE
 10
-7.84953
 20
8.27284
 30
0.000000
  70
    32
  0
VERTEX
  8
0
  5
3AF
 10
-7.81505
 20
8.29069
 30
0.000000
  70
    32
  0
VERTEX
  8
0
  5
3B0
 10
-7.78053
 20
8.30848
 30
0.000000
  70
    32
  0
VERTEX
  8
0
  5
3B1
 10
-7.74597
 20
8.32620
 30
0.000000
  70
    32
  0
VERTEX
  8
0
  5
3B2
 10
-7.71138
 20
8.34385
 30
0.000000
  70
    32
  0
VERTEX
  8
0
  5
3B3
 10
-7.67676
 20
8.36145
 30
0.000000
  70
    32
  0
VERTEX
  8
0
  5
3B4
 10
-7.64211
 20
8.37899
 30
0.000000
  70
    32
  0
VERTEX
  8
0
  5
3B5
 10
-7.60743
 20
8.39648
 30
0.000000
  70
    32
  0
VERTEX
  8
0
  5
3B6
 10
-7.57273
 20
8.41392
 30
0.000000
  70
    32
  0
VERTEX
  8
0
  5
3B7
 10
-7.53800
 20
8.43131
 30
0.000000
  70
    32
  0
VERTEX
  8
0
  5
3B8
 10
-7.50325
 20
8.44867
 30
0.000000
  70
    32
  0
VERTEX
  8
0
  5
3B9
 10
-7.46848
 20
8.46599
 30
0.000000
  70
    32
  0
VERTEX
  8
0
  5
3BA
 10
-7.43370
 20
8.48328
 30
0.000000
  70
    32
  0
VERTEX
  8
0
  5
3BB
 10
-7.39890
 20
8.50055
 30
0.000000
  70
    32
  0
VERTEX
  8
0
  5
3BC
 10
-7.36408
 20
8.51778
 30
0.000000
  70
    32
  0
VERTEX
  8
0
  5
3BD
 10
-7.32926
 20
8.53500
 30
0.000000
  70
    32
  0
VERTEX
  8
0
  5
3BE
 10
-7.29441
 20
8.55218
 30
0.000000
  70
    32
  0
VERTEX
  8
0
  5
3BF
 10
-7.25956
 20
8.56932
 30
0.000000
  70
    32
  0
VERTEX
  8
0
  5
3C0
 10
-7.22468
 20
8.58644
 30
0.000000
  70
    32
  0
VERTEX
  8
0
  5
3C1
 10
-7.18979
 20
8.60351
 30
0.000000
  70
    32
  0
VERTEX
  8
0
  5
3C2
 10
-7.15487
 20
8.62054
 30
0.000000
  70
    32
  0
VERTEX
  8
0
  5
3C3
 10
-7.11994
 20
8.63753
 30
0.000000
  70
    32
  0
VERTEX
  8
0
  5
3C4
 10
-7.08498
 20
8.65447
 30
0.000000
  70
    32
  0
VERTEX
  8
0
  5
3C5
 10
-7.05000
 20
8.67136
 30
0.000000
  70
    32
  0
VERTEX
  8
0
  5
3C6
 10
-7.01500
 20
8.68819
 30
0.000000
  70
    32
  0
VERTEX
  8
0
  5
3C7
 10
-6.97997
 20
8.70497
 30
0.000000
  70
    32
  0
VERTEX
  8
0
  5
3C8
 10
-6.94492
 20
8.72169
 30
0.000000
  70
    32
  0
VERTEX
  8
0
  5
3C9
 10
-6.90983
 20
8.73835
 30
0.000000
  70
    32
  0
VERTEX
  8
0
  5
3CA
 10
-6.87472
 20
8.75495
 30
0.000000
  70
    32
  0
VERTEX
  8
0
  5
3CB
 10
-6.83958
 20
8.77148
 30
0.000000
  70
    32
  0
VERTEX
  8
0
  5
3CC
 10
-6.80441
 20
8.78793
 30
0.000000
  70
    32
  0
VERTEX
  8
0
  5
3CD
 10
-6.76920
 20
8.80432
 30
0.000000
  70
    32
  0
VERTEX
  8
0
  5
3CE
 10
-6.73396
 20
8.82062
 30
0.000000
  70
    32
  0
VERTEX
  8
0
  5
3CF
 10
-6.69869
 20
8.83685
 30
0.000000
  70
    32
  0
VERTEX
  8
0
  5
3D0
 10
-6.66338
 20
8.85300
 30
0.000000
  70
    32
  0
VERTEX
  8
0
  5
3D1
 10
-6.62803
 20
8.86906
 30
0.000000
  70
    32
  0
VERTEX
  8
0
  5
3D2
 10
-6.59265
 20
8.88503
 30
0.000000
  70
    32
  0
VERTEX
  8
0
  5
3D3
 10
-6.55723
 20
8.90091
 30
0.000000
  70
    32
  0
VERTEX
  8
0
  5
3D4
 10
-6.52176
 20
8.91670
 30
0.000000
  70
    32
  0
VERTEX
  8
0
  5
3D5
 10
-6.48626
 20
8.93239
 30
0.000000
  70
    32
  0
VERTEX
  8
0
  5
3D6
 10
-6.45071
 20
8.94798
 30
0.000000
  70
    32
  0
VERTEX
  8
0
  5
3D7
 10
-6.41512
 20
8.96347
 30
0.000000
  70
    32
  0
VERTEX
  8
0
  5
3D8
 10
-6.37948
 20
8.97885
 30
0.000000
  70
    32
  0
VERTEX
  8
0
  5
3D9
 10
-6.34380
 20
8.99413
 30
0.000000
  70
    32
  0
VERTEX
  8
0
  5
3DA
 10
-6.30807
 20
9.00929
 30
0.000000
  70
    32
  0
VERTEX
  8
0
  5
3DB
 10
-6.27229
 20
9.02434
 30
0.000000
  70
    32
  0
VERTEX
  8
0
  5
3DC
 10
-6.23647
 20
9.03929
 30
0.000000
  70
    32
  0
VERTEX
  8
0
  5
3DD
 10
-6.20060
 20
9.05412
 30
0.000000
  70
    32
  0
VERTEX
  8
0
  5
3DE
 10
-6.16468
 20
9.06884
 30
0.000000
  70
    32
  0
VERTEX
  8
0
  5
3DF
 10
-6.12872
 20
9.08346
 30
0.000000
  70
    32
  0
VERTEX
  8
0
  5
3E0
 10
-6.09272
 20
9.09797
 30
0.000000
  70
    32
  0
VERTEX
  8
0
  5
3E1
 10
-6.05667
 20
9.11237
 30
0.000000
  70
    32
  0
VERTEX
  8
0
  5
3E2
 10
-6.02058
 20
9.12667
 30
0.000000
  70
    32
  0
VERTEX
  8
0
  5
3E3
 10
-5.98445
 20
9.14087
 30
0.000000
  70
    32
  0
VERTEX
  8
0
  5
3E4
 10
-5.94827
 20
9.15497
 30
0.000000
  70
    32
  0
VERTEX
  8
0
  5
3E5
 10
-5.91206
 20
9.16896
 30
0.000000
  70
    32
  0
VERTEX
  8
0
  5
3E6
 10
-5.87580
 20
9.18285
 30
0.000000
  70
    32
  0
VERTEX
  8
0
  5
3E7
 10
-5.83950
 20
9.19664
 30
0.000000
  70
    32
  0
VERTEX
  8
0
  5
3E8
 10
-5.80317
 20
9.21034
 30
0.000000
  70
    32
  0
VERTEX
  8
0
  5
3E9
 10
-5.76679
 20
9.22394
 30
0.000000
  70
    32
  0
VERTEX
  8
0
  5
3EA
 10
-5.73038
 20
9.23744
 30
0.000000
  70
    32
  0
VERTEX
  8
0
  5
3EB
 10
-5.69393
 20
9.25085
 30
0.000000
  70
    32
  0
VERTEX
  8
0
  5
3EC
 10
-5.65744
 20
9.26416
 30
0.000000
  70
    32
  0
VERTEX
  8
0
  5
3ED
 10
-5.62092
 20
9.27738
 30
0.000000
  70
    32
  0
VERTEX
  8
0
  5
3EE
 10
-5.58436
 20
9.29051
 30
0.000000
  70
    32
  0
VERTEX
  8
0
  5
3EF
 10
-5.54777
 20
9.30355
 30
0.000000
  70
    32
  0
VERTEX
  8
0
  5
3F0
 10
-5.51114
 20
9.31649
 30
0.000000
  70
    32
  0
VERTEX
  8
0
  5
3F1
 10
-5.47448
 20
9.32935
 30
0.000000
  70
    32
  0
VERTEX
  8
0
  5
3F2
 10
-5.43779
 20
9.34212
 30
0.000000
  70
    32
  0
VERTEX
  8
0
  5
3F3
 10
-5.40106
 20
9.35481
 30
0.000000
  70
    32
  0
VERTEX
  8
0
  5
3F4
 10
-5.36430
 20
9.36740
 30
0.000000
  70
    32
  0
VERTEX
  8
0
  5
3F5
 10
-5.32751
 20
9.37992
 30
0.000000
  70
    32
  0
VERTEX
  8
0
  5
3F6
 10
-5.29069
 20
9.39235
 30
0.000000
  70
    32
  0
VERTEX
  8
0
  5
3F7
 10
-5.25384
 20
9.40469
 30
0.000000
  70
    32
  0
VERTEX
  8
0
  5
3F8
 10
-5.21696
 20
9.41696
 30
0.000000
  70
    32
  0
VERTEX
  8
0
  5
3F9
 10
-5.18006
 20
9.42914
 30
0.000000
  70
    32
  0
VERTEX
  8
0
  5
3FA
 10
-5.14312
 20
9.44125
 30
0.000000
  70
    32
  0
VERTEX
  8
0
  5
3FB
 10
-5.10616
 20
9.45328
 30
0.000000
  70
    32
  0
VERTEX
  8
0
  5
3FC
 10
-5.06917
 20
9.46522
 30
0.000000
  70
    32
  0
VERTEX
  8
0
  5
3FD
 10
-5.03215
 20
9.47710
 30
0.000000
  70
    32
  0
VERTEX
  8
0
  5
3FE
 10
-4.99511
 20
9.48889
 30
0.000000
  70
    32
  0
VERTEX
  8
0
  5
3FF
 10
-4.95804
 20
9.50062
 30
0.000000
  70
    32
  0
VERTEX
  8
0
  5
400
 10
-4.92095
 20
9.51227
 30
0.000000
  70
    32
  0
VERTEX
  8
0
  5
401
 10
-4.88383
 20
9.52384
 30
0.000000
  70
    32
  0
VERTEX
  8
0
  5
402
 10
-4.84669
 20
9.53534
 30
0.000000
  70
    32
  0
VERTEX
  8
0
  5
403
 10
-4.80953
 20
9.54677
 30
0.000000
  70
    32
  0
VERTEX
  8
0
  5
404
 10
-4.77234
 20
9.55811
 30
0.000000
  70
    32
  0
VERTEX
  8
0
  5
405
 10
-4.73513
 20
9.56939
 30
0.000000
  70
    32
  0
VERTEX
  8
0
  5
406
 10
-4.69789
 20
9.58058
 30
0.000000
  70
    32
  0
VERTEX
  8
0
  5
407
 10
-4.66063
 20
9.59169
 30
0.000000
  70
    32
  0
VERTEX
  8
0
  5
408
 10
-4.62335
 20
9.60273
 30
0.000000
  70
    32
  0
VERTEX
  8
0
  5
409
 10
-4.58605
 20
9.61368
 30
0.000000
  70
    32
  0
VERTEX
  8
0
  5
40A
 10
-4.54872
 20
9.62455
 30
0.000000
  70
    32
  0
VERTEX
  8
0
  5
40B
 10
-4.51136
 20
9.63535
 30
0.000000
  70
    32
  0
VERTEX
  8
0
  5
40C
 10
-4.47399
 20
9.64606
 30
0.000000
  70
    32
  0
VERTEX
  8
0
  5
40D
 10
-4.43659
 20
9.65668
 30
0.000000
  70
    32
  0
VERTEX
  8
0
  5
40E
 10
-4.39917
 20
9.66722
 30
0.000000
  70
    32
  0
VERTEX
  8
0
  5
40F
 10
-4.36172
 20
9.67768
 30
0.000000
  70
    32
  0
VERTEX
  8
0
  5
410
 10
-4.32425
 20
9.68805
 30
0.000000
  70
    32
  0
VERTEX
  8
0
  5
411
 10
-4.28676
 20
9.69834
 30
0.000000
  70
    32
  0
VERTEX
  8
0
  5
412
 10
-4.24925
 20
9.70853
 30
0.000000
  70
    32
  0
VERTEX
  8
0
  5
413
 10
-4.21172
 20
9.71864
 30
0.000000
  70
    32
  0
VERTEX
  8
0
  5
414
 10
-4.17416
 20
9.72867
 30
0.000000
  70
    32
  0
VERTEX
  8
0
  5
415
 10
-4.13658
 20
9.73860
 30
0.000000
  70
    32
  0
VERTEX
  8
0
  5
416
 10
-4.09898
 20
9.74844
 30
0.000000
  70
    32
  0
VERTEX
  8
0
  5
417
 10
-4.06136
 20
9.75819
 30
0.000000
  70
    32
  0
VERTEX
  8
0
  5
418
 10
-4.02371
 20
9.76785
 30
0.000000
  70
    32
  0
VERTEX
  8
0
  5
419
 10
-3.98604
 20
9.77742
 30
0.000000
  70
    32
  0
VERTEX
  8
0
  5
41A
 10
-3.94835
 20
9.78689
 30
0.000000
  70
    32
  0
VERTEX
  8
0
  5
41B
 10
-3.91064
 20
9.79627
 30
0.000000
  70
    32
  0
VERTEX
  8
0
  5
41C
 10
-3.87291
 20
9.80556
 30
0.000000
  70
    32
  0
VERTEX
  8
0
  5
41D
 10
-3.83516
 20
9.81475
 30
0.000000
  70
    32
  0
VERTEX
  8
0
  5
41E
 10
-3.79738
 20
9.82384
 30
0.000000
  70
    32
  0
VERTEX
  8
0
  5
41F
 10
-3.75959
 20
9.83284
 30
0.000000
  70
    32
  0
VERTEX
  8
0
  5
420
 10
-3.72177
 20
9.84174
 30
0.000000
  70
    32
  0
VERTEX
  8
0
  5
421
 10
-3.68393
 20
9.85054
 30
0.000000
  70
    32
  0
VERTEX
  8
0
  5
422
 10
-3.64607
 20
9.85924
 30
0.000000
  70
    32
  0
VERTEX
  8
0
  5
423
 10
-3.60820
 20
9.86784
 30
0.000000
  70
    32
  0
VERTEX
  8
0
  5
424
 10
-3.57030
 20
9.87634
 30
0.000000
  70
    32
  0
VERTEX
  8
0
  5
425
 10
-3.53238
 20
9.88474
 30
0.000000
  70
    32
  0
VERTEX
  8
0
  5
426
 10
-3.49443
 20
9.89304
 30
0.000000
  70
    32
  0
VERTEX
  8
0
  5
427
 10
-3.45647
 20
9.90123
 30
0.000000
  70
    32
  0
VERTEX
  8
0
  5
428
 10
-3.41849
 20
9.90932
 30
0.000000
  70
    32
  0
VERTEX
  8
0
  5
429
 10
-3.38049
 20
9.91731
 30
0.000000
  70
    32
  0
VERTEX
  8
0
  5
42A
 10
-3.34247
 20
9.92519
 30
0.000000
  70
    32
  0
VERTEX
  8
0
  5
42B
 10
-3.30443
 20
9.93296
 30
0.000000
  70
    32
  0
VERTEX
  8
0
  5
42C
 10
-3.26637
 20
9.94063
 30
0.000000
  70
    32
  0
VERTEX
  8
0
  5
42D
 10
-3.22828
 20
9.94819
 30
0.000000
  70
    32
  0
VERTEX
  8
0
  5
42E
 10
-3.19018
 20
9.95564
 30
0.000000
  70
    32
  0
VERTEX
  8
0
  5
42F
 10
-3.15206
 20
9.96299
 30
0.000000
  70
    32
  0
VERTEX
  8
0
  5
430
 10
-3.11392
 20
9.97022
 30
0.000000
  70
    32
  0
VERTEX
  8
0
  5
431
 10
-3.07576
 20
9.97734
 30
0.000000
  70
    32
  0
VERTEX
  8
0
  5
432
 10
-3.03759
 20
9.98435
 30
0.000000
  70
    32
  0
VERTEX
  8
0
  5
433
 10
-2.99939
 20
9.99125
 30
0.000000
  70
    32
  0
VERTEX
  8
0
  5
434
 10
-2.96117
 20
9.99804
 30
0.000000
  70
    32
  0
VERTEX
  8
0
  5
435
 10
-2.92294
 20
10.0047
 30
0.000000
  70
    32
  0
VERTEX
  8
0
  5
436
 10
-2.88468
 20
10.0113
 30
0.000000
  70
    32
  0
VERTEX
  8
0
  5
437
 10
-2.84641
 20
10.0177
 30
0.000000
  70
    32
  0
VERTEX
  8
0
  5
438
 10
-2.80812
 20
10.0241
 30
0.000000
  70
    32
  0
VERTEX
  8
0
  5
439
 10
-2.76981
 20
10.0303
 30
0.000000
  70
    32
  0
VERTEX
  8
0
  5
43A
 10
-2.73149
 20
10.0364
 30
0.000000
  70
    32
  0
VERTEX
  8
0
  5
43B
 10
-2.69314
 20
10.0424
 30
0.000000
  70
    32
  0
VERTEX
  8
0
  5
43C
 10
-2.65478
 20
10.0483
 30
0.000000
  70
    32
  0
VERTEX
  8
0
  5
43D
 10
-2.61641
 20
10.0541
 30
0.000000
  70
    32
  0
VERTEX
  8
0
  5
43E
 10
-2.57801
 20
10.0597
 30
0.000000
  70
    32
  0
VERTEX
  8
0
  5
43F
 10
-2.53960
 20
10.0653
 30
0.000000
  70
    32
  0
VERTEX
  8
0
  5
440
 10
-2.50117
 20
10.0708
 30
0.000000
  70
    32
  0
VERTEX
  8
0
  5
441
 10
-2.46273
 20
10.0761
 30
0.000000
  70
    32
  0
VERTEX
  8
0
  5
442
 10
-2.42427
 20
10.0814
 30
0.000000
  70
    32
  0
VERTEX
  8
0
  5
443
 10
-2.38580
 20
10.0865
 30
0.000000
  70
    32
  0
VERTEX
  8
0
  5
444
 10
-2.34731
 20
10.0916
 30
0.000000
  70
    32
  0
VERTEX
  8
0
  5
445
 10
-2.30881
 20
10.0965
 30
0.000000
  70
    32
  0
VERTEX
  8
0
  5
446
 10
-2.27029
 20
10.1014
 30
0.000000
  70
    32
  0
VERTEX
  8
0
  5
447
 10
-2.23175
 20
10.1061
 30
0.000000
  70
    32
  0
VERTEX
  8
0
  5
448
 10
-2.19321
 20
10.1107
 30
0.000000
  70
    32
  0
VERTEX
  8
0
  5
449
 10
-2.15464
 20
10.1153
 30
0.000000
  70
    32
  0
VERTEX
  8
0
  5
44A
 10
-2.11607
 20
10.1197
 30
0.000000
  70
    32
  0
VERTEX
  8
0
  5
44B
 10
-2.07748
 20
10.1240
 30
0.000000
  70
    32
  0
VERTEX
  8
0
  5
44C
 10
-2.03888
 20
10.1283
 30
0.000000
  70
    32
  0
VERTEX
  8
0
  5
44D
 10
-2.00026
 20
10.1324
 30
0.000000
  70
    32
  0
VERTEX
  8
0
  5
44E
 10
-1.96164
 20
10.1365
 30
0.000000
  70
    32
  0
VERTEX
  8
0
  5
44F
 10
-1.92300
 20
10.1404
 30
0.000000
  70
    32
  0
VERTEX
  8
0
  5
450
 10
-1.88434
 20
10.1442
 30
0.000000
  70
    32
  0
VERTEX
  8
0
  5
451
 10
-1.84568
 20
10.1480
 30
0.000000
  70
    32
  0
VERTEX
  8
0
  5
452
 10
-1.80700
 20
10.1517
 30
0.000000
  70
    32
  0
VERTEX
  8
0
  5
453
 10
-1.76832
 20
10.1552
 30
0.000000
  70
    32
  0
VERTEX
  8
0
  5
454
 10
-1.72962
 20
10.1587
 30
0.000000
  70
    32
  0
VERTEX
  8
0
  5
455
 10
-1.69091
 20
10.1621
 30
0.000000
  70
    32
  0
VERTEX
  8
0
  5
456
 10
-1.65219
 20
10.1654
 30
0.000000
  70
    32
  0
VERTEX
  8
0
  5
457
 10
-1.61345
 20
10.1686
 30
0.000000
  70
    32
  0
VERTEX
  8
0
  5
458
 10
-1.57471
 20
10.1717
 30
0.000000
  70
    32
  0
VERTEX
  8
0
  5
459
 10
-1.53596
 20
10.1747
 30
0.000000
  70
    32
  0
VERTEX
  8
0
  5
45A
 10
-1.49720
 20
10.1776
 30
0.000000
  70
    32
  0
VERTEX
  8
0
  5
45B
 10
-1.45843
 20
10.1805
 30
0.000000
  70
    32
  0
VERTEX
  8
0
  5
45C
 10
-1.41965
 20
10.1833
 30
0.000000
  70
    32
  0
VERTEX
  8
0
  5
45D
 10
-1.38086
 20
10.1859
 30
0.000000
  70
    32
  0
VERTEX
  8
0
  5
45E
 10
-1.34206
 20
10.1885
 30
0.000000
  70
    32
  0
VERTEX
  8
0
  5
45F
 10
-1.30326
 20
10.1910
 30
0.000000
  70
    32
  0
VERTEX
  8
0
  5
460
 10
-1.26444
 20
10.1934
 30
0.000000
  70
    32
  0
VERTEX
  8
0
  5
461
 10
-1.22562
 20
10.1957
 30
0.000000
  70
    32
  0
VERTEX
  8
0
  5
462
 10
-1.18679
 20
10.1980
 30
0.000000
  70
    32
  0
VERTEX
  8
0
  5
463
 10
-1.14795
 20
10.2002
 30
0.000000
  70
    32
  0
VERTEX
  8
0
  5
464
 10
-1.10910
 20
10.2022
 30
0.000000
  70
    32
  0
VERTEX
  8
0
  5
465
 10
-1.07025
 20
10.2042
 30
0.000000
  70
    32
  0
VERTEX
  8
0
  5
466
 10
-1.03139
 20
10.2062
 30
0.000000
  70
    32
  0
VERTEX
  8
0
  5
467
 10
-0.992527
 20
10.2080
 30
0.000000
  70
    32
  0
VERTEX
  8
0
  5
468
 10
-0.953655
 20
10.2098
 30
0.000000
  70
    32
  0
VERTEX
  8
0
  5
469
 10
-0.914776
 20
10.2114
 30
0.000000
  70
    32
  0
VERTEX
  8
0
  5
46A
 10
-0.875892
 20
10.2130
 30
0.000000
  70
    32
  0
VERTEX
  8
0
  5
46B
 10
-0.837003
 20
10.2146
 30
0.000000
  70
    32
  0
VERTEX
  8
0
  5
46C
 10
-0.798108
 20
10.2160
 30
0.000000
  70
    32
  0
VERTEX
  8
0
  5
46D
 10
-0.759208
 20
10.2174
 30
0.000000
  70
    32
  0
VERTEX
  8
0
  5
46E
 10
-0.720303
 20
10.2187
 30
0.000000
  70
    32
  0
VERTEX
  8
0
  5
46F
 10
-0.681394
 20
10.2199
 30
0.000000
  70
    32
  0
VERTEX
  8
0
  5
470
 10
-0.642480
 20
10.2211
 30
0.000000
  70
    32
  0
VERTEX
  8
0
  5
471
 10
-0.603563
 20
10.2221
 30
0.000000
  70
    32
  0
VERTEX
  8
0
  5
472
 10
-0.564641
 20
10.2231
 30
0.000000
  70
    32
  0
VERTEX
  8
0
  5
473
 10
-0.525716
 20
10.2241
 30
0.000000
  70
    32
  0
VERTEX
  8
0
  5
474
 10
-0.486787
 20
10.2249
 30
0.000000
  70
    32
  0
VERTEX
  8
0
  5
475
 10
-0.447856
 20
10.2257
 30
0.000000
  70
    32
  0
VERTEX
  8
0
  5
476
 10
-0.408921
 20
10.2265
 30
0.000000
  70
    32
  0
VERTEX
  8
0
  5
477
 10
-0.369984
 20
10.2271
 30
0.000000
  70
    32
  0
VERTEX
  8
0
  5
478
 10
-0.331045
 20
10.2277
 30
0.000000
  70
    32
  0
VERTEX
  8
0
  5
479
 10
-0.292103
 20
10.2282
 30
0.000000
  70
    32
  0
VERTEX
  8
0
  5
47A
 10
-0.253160
 20
10.2287
 30
0.000000
  70
    32
  0
VERTEX
  8
0
  5
47B
 10
-0.214215
 20
10.2290
 30
0.000000
  70
    32
  0
VERTEX
  8
0
  5
47C
 10
-0.175269
 20
10.2294
 30
0.000000
  70
    32
  0
VERTEX
  8
0
  5
47D
 10
-0.136321
 20
10.2296
 30
0.000000
  70
    32
  0
VERTEX
  8
0
  5
47E
 10
-0.0973729
 20
10.2298
 30
0.000000
  70
    32
  0
VERTEX
  8
0
  5
47F
 10
-0.0584240
 20
10.2299
 30
0.000000
  70
    32
  0
VERTEX
  8
0
  5
480
 10
-0.0194747
 20
10.2300
 30
0.000000
  70
    32
  0
VERTEX
  8
0
  5
481
 10
0.0194747
 20
10.2300
 30
0.000000
  70
    32
  0
VERTEX
  8
0
  5
482
 10
0.0584240
 20
10.2299
 30
0.000000
  70
    32
  0
VERTEX
  8
0
  5
483
 10
0.0973729
 20
10.2298
 30
0.000000
  70
    32
  0
VERTEX
  8
0
  5
484
 10
0.136321
 20
10.2296
 30
0.000000
  70
    32
  0
VERTEX
  8
0
  5
485
 10
0.175269
 20
10.2294
 30
0.000000
  70
    32
  0
VERTEX
  8
0
  5
486
 10
0.214215
 20
10.2290
 30
0.000000
  70
    32
  0
VERTEX
  8
0
  5
487
 10
0.253160
 20
10.2287
 30
0.000000
  70
    32
  0
VERTEX
  8
0
  5
488
 10
0.292103
 20
10.2282
 30
0.000000
  70
    32
  0
VERTEX
  8
0
  5
489
 10
0.331045
 20
10.2277
 30
0.000000
  70
    32
  0
VERTEX
  8
0
  5
48A
 10
0.369984
 20
10.2271
 30
0.000000
  70
    32
  0
VERTEX
  8
0
  5
48B
 10
0.408921
 20
10.2265
 30
0.000000
  70
    32
  0
VERTEX
  8
0
  5
48C
 10
0.447856
 20
10.2257
 30
0.000000
  70
    32
  0
VERTEX
  8
0
  5
48D
 10
0.486787
 20
10.2249
 30
0.000000
  70
    32
  0
VERTEX
  8
0
  5
48E
 10
0.525716
 20
10.2241
 30
0.000000
  70
    32
  0
VERTEX
  8
0
  5
48F
 10
0.564641
 20
10.2231
 30
0.000000
  70
    32
  0
VERTEX
  8
0
  5
490
 10
0.603563
 20
10.2221
 30
0.000000
  70
    32
  0
VERTEX
  8
0
  5
491
 10
0.642480
 20
10.2211
 30
0.000000
  70
    32
  0
VERTEX
  8
0
  5
492
 10
0.681394
 20
10.2199
 30
0.000000
  70
    32
  0
VERTEX
  8
0
  5
493
 10
0.720303
 20
10.2187
 30
0.000000
  70
    32
  0
VERTEX
  8
0
  5
494
 10
0.759208
 20
10.2174
 30
0.000000
  70
    32
  0
VERTEX
  8
0
  5
495
 10
0.798108
 20
10.2160
 30
0.000000
  70
    32
  0
VERTEX
  8
0
  5
496
 10
0.837003
 20
10.2146
 30
0.000000
  70
    32
  0
VERTEX
  8
0
  5
497
 10
0.875892
 20
10.2130
 30
0.000000
  70
    32
  0
VERTEX
  8
0
  5
498
 10
0.914776
 20
10.2114
 30
0.000000
  70
    32
  0
VERTEX
  8
0
  5
499
 10
0.953655
 20
10.2098
 30
0.000000
  70
    32
  0
VERTEX
  8
0
  5
49A
 10
0.992527
 20
10.2080
 30
0.000000
  70
    32
  0
VERTEX
  8
0
  5
49B
 10
1.03139
 20
10.2062
 30
0.000000
  70
    32
  0
VERTEX
  8
0
  5
49C
 10
1.07025
 20
10.2042
 30
0.000000
  70
    32
  0
VERTEX
  8
0
  5
49D
 10
1.10910
 20
10.2022
 30
0.000000
  70
    32
  0
VERTEX
  8
0
  5
49E
 10
1.14795
 20
10.2002
 30
0.000000
  70
    32
  0
VERTEX
  8
0
  5
49F
 10
1.18679
 20
10.1980
 30
0.000000
  70
    32
  0
VERTEX
  8
0
  5
4A0
 10
1.22562
 20
10.1957
 30
0.000000
  70
    32
  0
VERTEX
  8
0
  5
4A1
 10
1.26444
 20
10.1934
 30
0.000000
  70
    32
  0
VERTEX
  8
0
  5
4A2
 10
1.30326
 20
10.1910
 30
0.000000
  70
    32
  0
VERTEX
  8
0
  5
4A3
 10
1.34206
 20
10.1885
 30
0.000000
  70
    32
  0
VERTEX
  8
0
  5
4A4
 10
1.38086
 20
10.1859
 30
0.000000
  70
    32
  0
VERTEX
  8
0
  5
4A5
 10
1.41965
 20
10.1833
 30
0.000000
  70
    32
  0
VERTEX
  8
0
  5
4A6
 10
1.45843
 20
10.1805
 30
0.000000
  70
    32
  0
VERTEX
  8
0
  5
4A7
 10
1.49720
 20
10.1776
 30
0.000000
  70
    32
  0
VERTEX
  8
0
  5
4A8
 10
1.53596
 20
10.1747
 30
0.000000
  70
    32
  0
VERTEX
  8
0
  5
4A9
 10
1.57471
 20
10.1717
 30
0.000000
  70
    32
  0
VERTEX
  8
0
  5
4AA
 10
1.61345
 20
10.1686
 30
0.000000
  70
    32
  0
VERTEX
  8
0
  5
4AB
 10
1.65219
 20
10.1654
 30
0.000000
  70
    32
  0
VERTEX
  8
0
  5
4AC
 10
1.69091
 20
10.1621
 30
0.000000
  70
    32
  0
VERTEX
  8
0
  5
4AD
 10
1.72962
 20
10.1587
 30
0.000000
  70
    32
  0
VERTEX
  8
0
  5
4AE
 10
1.76832
 20
10.1552
 30
0.000000
  70
    32
  0
VERTEX
  8
0
  5
4AF
 10
1.80700
 20
10.1517
 30
0.000000
  70
    32
  0
VERTEX
  8
0
  5
4B0
 10
1.84568
 20
10.1480
 30
0.000000
  70
    32
  0
VERTEX
  8
0
  5
4B1
 10
1.88434
 20
10.1442
 30
0.000000
  70
    32
  0
VERTEX
  8
0
  5
4B2
 10
1.92300
 20
10.1404
 30
0.000000
  70
    32
  0
VERTEX
  8
0
  5
4B3
 10
1.96164
 20
10.1365
 30
0.000000
  70
    32
  0
VERTEX
  8
0
  5
4B4
 10
2.00026
 20
10.1324
 30
0.000000
  70
    32
  0
VERTEX
  8
0
  5
4B5
 10
2.03888
 20
10.1283
 30
0.000000
  70
    32
  0
VERTEX
  8
0
  5
4B6
 10
2.07748
 20
10.1240
 30
0.000000
  70
    32
  0
VERTEX
  8
0
  5
4B7
 10
2.11607
 20
10.1197
 30
0.000000
  70
    32
  0
VERTEX
  8
0
  5
4B8
 10
2.15464
 20
10.1153
 30
0.000000
  70
    32
  0
VERTEX
  8
0
  5
4B9
 10
2.19321
 20
10.1107
 30
0.000000
  70
    32
  0
VERTEX
  8
0
  5
4BA
 10
2.23175
 20
10.1061
 30
0.000000
  70
    32
  0
VERTEX
  8
0
  5
4BB
 10
2.27029
 20
10.1014
 30
0.000000
  70
    32
  0
VERTEX
  8
0
  5
4BC
 10
2.30881
 20
10.0965
 30
0.000000
  70
    32
  0
VERTEX
  8
0
  5
4BD
 10
2.34731
 20
10.0916
 30
0.000000
  70
    32
  0
VERTEX
  8
0
  5
4BE
 10
2.38580
 20
10.0865
 30
0.000000
  70
    32
  0
VERTEX
  8
0
  5
4BF
 10
2.42427
 20
10.0814
 30
0.000000
  70
    32
  0
VERTEX
  8
0
  5
4C0
 10
2.46273
 20
10.0761
 30
0.000000
  70
    32
  0
VERTEX
  8
0
  5
4C1
 10
2.50117
 20
10.0708
 30
0.000000
  70
    32
  0
VERTEX
  8
0
  5
4C2
 10
2.53960
 20
10.0653
 30
0.000000
  70
    32
  0
VERTEX
  8
0
  5
4C3
 10
2.57801
 20
10.0597
 30
0.000000
  70
    32
  0
VERTEX
  8
0
  5
4C4
 10
2.61641
 20
10.0541
 30
0.000000
  70
    32
  0
VERTEX
  8
0
  5
4C5
 10
2.65478
 20
10.0483
 30
0.000000
  70
    32
  0
VERTEX
  8
0
  5
4C6
 10
2.69314
 20
10.0424
 30
0.000000
  70
    32
  0
VERTEX
  8
0
  5
4C7
 10
2.73149
 20
10.0364
 30
0.000000
  70
    32
  0
VERTEX
  8
0
  5
4C8
 10
2.76981
 20
10.0303
 30
0.000000
  70
    32
  0
VERTEX
  8
0
  5
4C9
 10
2.80812
 20
10.0241
 30
0.000000
  70
    32
  0
VERTEX
  8
0
  5
4CA
 10
2.84641
 20
10.0177
 30
0.000000
  70
    32
  0
VERTEX
  8
0
  5
4CB
 10
2.88468
 20
10.0113
 30
0.000000
  70
    32
  0
VERTEX
  8
0
  5
4CC
 10
2.92294
 20
10.0047
 30
0.000000
  70
    32
  0
VERTEX
  8
0
  5
4CD
 10
2.96117
 20
9.99804
 30
0.000000
  70
    32
  0
VERTEX
  8
0
  5
4CE
 10
2.99939
 20
9.99125
 30
0.000000
  70
    32
  0
VERTEX
  8
0
  5
4CF
 10
3.03759
 20
9.98435
 30
0.000000
  70
    32
  0
VERTEX
  8
0
  5
4D0
 10
3.07576
 20
9.97734
 30
0.000000
  70
    32
  0
VERTEX
  8
0
  5
4D1
 10
3.11392
 20
9.97022
 30
0.000000
  70
    32
  0
VERTEX
  8
0
  5
4D2
 10
3.15206
 20
9.96299
 30
0.000000
  70
    32
  0
VERTEX
  8
0
  5
4D3
 10
3.19018
 20
9.95564
 30
0.000000
  70
    32
  0
VERTEX
  8
0
  5
4D4
 10
3.22828
 20
9.94819
 30
0.000000
  70
    32
  0
VERTEX
  8
0
  5
4D5
 10
3.26637
 20
9.94063
 30
0.000000
  70
    32
  0
VERTEX
  8
0
  5
4D6
 10
3.30443
 20
9.93296
 30
0.000000
  70
    32
  0
VERTEX
  8
0
  5
4D7
 10
3.34247
 20
9.92519
 30
0.000000
  70
    32
  0
VERTEX
  8
0
  5
4D8
 10
3.38049
 20
9.91731
 30
0.000000
  70
    32
  0
VERTEX
  8
0
  5
4D9
 10
3.41849
 20
9.90932
 30
0.000000
  70
    32
  0
VERTEX
  8
0
  5
4DA
 10
3.45647
 20
9.90123
 30
0.000000
  70
    32
  0
VERTEX
  8
0
  5
4DB
 10
3.49443
 20
9.89304
 30
0.000000
  70
    32
  0
VERTEX
  8
0
  5
4DC
 10
3.53238
 20
9.88474
 30
0.000000
  70
    32
  0
VERTEX
  8
0
  5
4DD
 10
3.57030
 20
9.87634
 30
0.000000
  70
    32
  0
VERTEX
  8
0
  5
4DE
 10
3.60820
 20
9.86784
 30
0.000000
  70
    32
  0
VERTEX
  8
0
  5
4DF
 10
3.64607
 20
9.85924
 30
0.000000
  70
    32
  0
VERTEX
  8
0
  5
4E0
 10
3.68393
 20
9.85054
 30
0.000000
  70
    32
  0
VERTEX
  8
0
  5
4E1
 10
3.72177
 20
9.84174
 30
0.000000
  70
    32
  0
VERTEX
  8
0
  5
4E2
 10
3.75959
 20
9.83284
 30
0.000000
  70
    32
  0
VERTEX
  8
0
  5
4E3
 10
3.79738
 20
9.82384
 30
0.000000
  70
    32
  0
VERTEX
  8
0
  5
4E4
 10
3.83516
 20
9.81475
 30
0.000000
  70
    32
  0
VERTEX
  8
0
  5
4E5
 10
3.87291
 20
9.80556
 30
0.000000
  70
    32
  0
VERTEX
  8
0
  5
4E6
 10
3.91064
 20
9.79627
 30
0.000000
  70
    32
  0
VERTEX
  8
0
  5
4E7
 10
3.94835
 20
9.78689
 30
0.000000
  70
    32
  0
VERTEX
  8
0
  5
4E8
 10
3.98604
 20
9.77742
 30
0.000000
  70
    32
  0
VERTEX
  8
0
  5
4E9
 10
4.02371
 20
9.76785
 30
0.000000
  70
    32
  0
VERTEX
  8
0
  5
4EA
 10
4.06136
 20
9.75819
 30
0.000000
  70
    32
  0
VERTEX
  8
0
  5
4EB
 10
4.09898
 20
9.74844
 30
0.000000
  70
    32
  0
VERTEX
  8
0
  5
4EC
 10
4.13658
 20
9.73860
 30
0.000000
  70
    32
  0
VERTEX
  8
0
  5
4ED
 10
4.17416
 20
9.72867
 30
0.000000
  70
    32
  0
VERTEX
  8
0
  5
4EE
 10
4.21172
 20
9.71864
 30
0.000000
  70
    32
  0
VERTEX
  8
0
  5
4EF
 10
4.24925
 20
9.70853
 30
0.000000
  70
    32
  0
VERTEX
  8
0
  5
4F0
 10
4.28676
 20
9.69834
 30
0.000000
  70
    32
  0
VERTEX
  8
0
  5
4F1
 10
4.32425
 20
9.68805
 30
0.000000
  70
    32
  0
VERTEX
  8
0
  5
4F2
 10
4.36172
 20
9.67768
 30
0.000000
  70
    32
  0
VERTEX
  8
0
  5
4F3
 10
4.39917
 20
9.66722
 30
0.000000
  70
    32
  0
VERTEX
  8
0
  5
4F4
 10
4.43659
 20
9.65668
 30
0.000000
  70
    32
  0
VERTEX
  8
0
  5
4F5
 10
4.47399
 20
9.64606
 30
0.000000
  70
    32
  0
VERTEX
  8
0
  5
4F6
 10
4.51136
 20
9.63535
 30
0.000000
  70
    32
  0
VERTEX
  8
0
  5
4F7
 10
4.54872
 20
9.62455
 30
0.000000
  70
    32
  0
VERTEX
  8
0
  5
4F8
 10
4.58605
 20
9.61368
 30
0.000000
  70
    32
  0
VERTEX
  8
0
  5
4F9
 10
4.62335
 20
9.60273
 30
0.000000
  70
    32
  0
VERTEX
  8
0
  5
4FA
 10
4.66063
 20
9.59169
 30
0.000000
  70
    32
  0
VERTEX
  8
0
  5
4FB
 10
4.69789
 20
9.58058
 30
0.000000
  70
    32
  0
VERTEX
  8
0
  5
4FC
 10
4.73513
 20
9.56939
 30
0.000000
  70
    32
  0
VERTEX
  8
0
  5
4FD
 10
4.77234
 20
9.55811
 30
0.000000
  70
    32
  0
VERTEX
  8
0
  5
4FE
 10
4.80953
 20
9.54677
 30
0.000000
  70
    32
  0
VERTEX
  8
0
  5
4FF
 10
4.84669
 20
9.53534
 30
0.000000
  70
    32
  0
VERTEX
  8
0
  5
500
 10
4.88383
 20
9.52384
 30
0.000000
  70
    32
  0
VERTEX
  8
0
  5
501
 10
4.92095
 20
9.51227
 30
0.000000
  70
    32
  0
VERTEX
  8
0
  5
502
 10
4.95804
 20
9.50062
 30
0.000000
  70
    32
  0
VERTEX
  8
0
  5
503
 10
4.99511
 20
9.48889
 30
0.000000
  70
    32
  0
VERTEX
  8
0
  5
504
 10
5.03215
 20
9.47710
 30
0.000000
  70
    32
  0
VERTEX
  8
0
  5
505
 10
5.06917
 20
9.46522
 30
0.000000
  70
    32
  0
VERTEX
  8
0
  5
506
 10
5.10616
 20
9.45328
 30
0.000000
  70
    32
  0
VERTEX
  8
0
  5
507
 10
5.14312
 20
9.44125
 30
0.000000
  70
    32
  0
VERTEX
  8
0
  5
508
 10
5.18006
 20
9.42914
 30
0.000000
  70
    32
  0
VERTEX
  8
0
  5
509
 10
5.21696
 20
9.41696
 30
0.000000
  70
    32
  0
VERTEX
  8
0
  5
50A
 10
5.25384
 20
9.40469
 30
0.000000
  70
    32
  0
VERTEX
  8
0
  5
50B
 10
5.29069
 20
9.39235
 30
0.000000
  70
    32
  0
VERTEX
  8
0
  5
50C
 10
5.32751
 20
9.37992
 30
0.000000
  70
    32
  0
VERTEX
  8
0
  5
50D
 10
5.36430
 20
9.36740
 30
0.000000
  70
    32
  0
VERTEX
  8
0
  5
50E
 10
5.40106
 20
9.35481
 30
0.000000
  70
    32
  0
VERTEX
  8
0
  5
50F
 10
5.43779
 20
9.34212
 30
0.000000
  70
    32
  0
VERTEX
  8
0
  5
510
 10
5.47448
 20
9.32935
 30
0.000000
  70
    32
  0
VERTEX
  8
0
  5
511
 10
5.51114
 20
9.31649
 30
0.000000
  70
    32
  0
VERTEX
  8
0
  5
512
 10
5.54777
 20
9.30355
 30
0.000000
  70
    32
  0
VERTEX
  8
0
  5
513
 10
5.58436
 20
9.29051
 30
0.000000
  70
    32
  0
VERTEX
  8
0
  5
514
 10
5.62092
 20
9.27738
 30
0.000000
  70
    32
  0
VERTEX
  8
0
  5
515
 10
5.65744
 20
9.26416
 30
0.000000
  70
    32
  0
VERTEX
  8
0
  5
516
 10
5.69393
 20
9.25085
 30
0.000000
  70
    32
  0
VERTEX
  8
0
  5
517
 10
5.73038
 20
9.23744
 30
0.000000
  70
    32
  0
VERTEX
  8
0
  5
518
 10
5.76679
 20
9.22394
 30
0.000000
  70
    32
  0
VERTEX
  8
0
  5
519
 10
5.80317
 20
9.21034
 30
0.000000
  70
    32
  0
VERTEX
  8
0
  5
51A
 10
5.83950
 20
9.19664
 30
0.000000
  70
    32
  0
VERTEX
  8
0
  5
51B
 10
5.87580
 20
9.18285
 30
0.000000
  70
    32
  0
VERTEX
  8
0
  5
51C
 10
5.91206
 20
9.16896
 30
0.000000
  70
    32
  0
VERTEX
  8
0
  5
51D
 10
5.94827
 20
9.15497
 30
0.000000
  70
    32
  0
VERTEX
  8
0
  5
51E
 10
5.98445
 20
9.14087
 30
0.000000
  70
    32
  0
VERTEX
  8
0
  5
51F
 10
6.02058
 20
9.12667
 30
0.000000
  70
    32
  0
VERTEX
  8
0
  5
520
 10
6.05667
 20
9.11237
 30
0.000000
  70
    32
  0
VERTEX
  8
0
  5
521
 10
6.09272
 20
9.09797
 30
0.000000
  70
    32
  0
VERTEX
  8
0
  5
522
 10
6.12872
 20
9.08346
 30
0.000000
  70
    32
  0
VERTEX
  8
0
  5
523
 10
6.16468
 20
9.06884
 30
0.000000
  70
    32
  0
VERTEX
  8
0
  5
524
 10
6.20060
 20
9.05412
 30
0.000000
  70
    32
  0
VERTEX
  8
0
  5
525
 10
6.23647
 20
9.03929
 30
0.000000
  70
    32
  0
VERTEX
  8
0
  5
526
 10
6.27229
 20
9.02434
 30
0.000000
  70
    32
  0
VERTEX
  8
0
  5
527
 10
6.30807
 20
9.00929
 30
0.000000
  70
    32
  0
VERTEX
  8
0
  5
528
 10
6.34380
 20
8.99413
 30
0.000000
  70
    32
  0
VERTEX
  8
0
  5
529
 10
6.37948
 20
8.97885
 30
0.000000
  70
    32
  0
VERTEX
  8
0
  5
52A
 10
6.41512
 20
8.96347
 30
0.000000
  70
    32
  0
VERTEX
  8
0
  5
52B
 10
6.45071
 20
8.94798
 30
0.000000
  70
    32
  0
VERTEX
  8
0
  5
52C
 10
6.48626
 20
8.93239
 30
0.000000
  70
    32
  0
VERTEX
  8
0
  5
52D
 10
6.52176
 20
8.91670
 30
0.000000
  70
    32
  0
VERTEX
  8
0
  5
52E
 10
6.55723
 20
8.90091
 30
0.000000
  70
    32
  0
VERTEX
  8
0
  5
52F
 10
6.59265
 20
8.88503
 30
0.000000
  70
    32
  0
VERTEX
  8
0
  5
530
 10
6.62803
 20
8.86906
 30
0.000000
  70
    32
  0
VERTEX
  8
0
  5
531
 10
6.66338
 20
8.85300
 30
0.000000
  70
    32
  0
VERTEX
  8
0
  5
532
 10
6.69869
 20
8.83685
 30
0.000000
  70
    32
  0
VERTEX
  8
0
  5
533
 10
6.73396
 20
8.82062
 30
0.000000
  70
    32
  0
VERTEX
  8
0
  5
534
 10
6.76920
 20
8.80432
 30
0.000000
  70
    32
  0
VERTEX
  8
0
  5
535
 10
6.80441
 20
8.78793
 30
0.000000
  70
    32
  0
VERTEX
  8
0
  5
536
 10
6.83958
 20
8.77148
 30
0.000000
  70
    32
  0
VERTEX
  8
0
  5
537
 10
6.87472
 20
8.75495
 30
0.000000
  70
    32
  0
VERTEX
  8
0
  5
538
 10
6.90983
 20
8.73835
 30
0.000000
  70
    32
  0
VERTEX
  8
0
  5
539
 10
6.94492
 20
8.72169
 30
0.000000
  70
    32
  0
VERTEX
  8
0
  5
53A
 10
6.97997
 20
8.70497
 30
0.000000
  70
    32
  0
VERTEX
  8
0
  5
53B
 10
7.01500
 20
8.68819
 30
0.000000
  70
    32
  0
VERTEX
  8
0
  5
53C
 10
7.05000
 20
8.67136
 30
0.000000
  70
    32
  0
VERTEX
  8
0
  5
53D
 10
7.08498
 20
8.65447
 30
0.000000
  70
    32
  0
VERTEX
  8
0
  5
53E
 10
7.11994
 20
8.63753
 30
0.000000
  70
    32
  0
VERTEX
  8
0
  5
53F
 10
7.15487
 20
8.62054
 30
0.000000
  70
    32
  0
VERTEX
  8
0
  5
540
 10
7.18979
 20
8.60351
 30
0.000000
  70
    32
  0
VERTEX
  8
0
  5
541
 10
7.22468
 20
8.58644
 30
0.000000
  70
    32
  0
VERTEX
  8
0
  5
542
 10
7.25956
 20
8.56932
 30
0.000000
  70
    32
  0
VERTEX
  8
0
  5
543
 10
7.29441
 20
8.55218
 30
0.000000
  70
    32
  0
VERTEX
  8
0
  5
544
 10
7.32926
 20
8.53500
 30
0.000000
  70
    32
  0
VERTEX
  8
0
  5
545
 10
7.36408
 20
8.51778
 30
0.000000
  70
    32
  0
VERTEX
  8
0
  5
546
 10
7.39890
 20
8.50055
 30
0.000000
  70
    32
  0
VERTEX
  8
0
  5
547
 10
7.43370
 20
8.48328
 30
0.000000
  70
    32
  0
VERTEX
  8
0
  5
548
 10
7.46848
 20
8.46599
 30
0.000000
  70
    32
  0
VERTEX
  8
0
  5
549
 10
7.50325
 20
8.44867
 30
0.000000
  70
    32
  0
VERTEX
  8
0
  5
54A
 10
7.53800
 20
8.43131
 30
0.000000
  70
    32
  0
VERTEX
  8
0
  5
54B
 10
7.57273
 20
8.41392
 30
0.000000
  70
    32
  0
VERTEX
  8
0
  5
54C
 10
7.60743
 20
8.39648
 30
0.000000
  70
    32
  0
VERTEX
  8
0
  5
54D
 10
7.64211
 20
8.37899
 30
0.000000
  70
    32
  0
VERTEX
  8
0
  5
54E
 10
7.67676
 20
8.36145
 30
0.000000
  70
    32
  0
VERTEX
  8
0
  5
54F
 10
7.71138
 20
8.34385
 30
0.000000
  70
    32
  0
VERTEX
  8
0
  5
550
 10
7.74597
 20
8.32620
 30
0.000000
  70
    32
  0
VERTEX
  8
0
  5
551
 10
7.78053
 20
8.30848
 30
0.000000
  70
    32
  0
VERTEX
  8
0
  5
552
 10
7.81505
 20
8.29069
 30
0.000000
  70
    32
  0
VERTEX
  8
0
  5
553
 10
7.84953
 20
8.27284
 30
0.000000
  70
    32
  0
VERTEX
  8
0
  5
554
 10
7.88398
 20
8.25491
 30
0.000000
  70
    32
  0
VERTEX
  8
0
  5
555
 10
7.91837
 20
8.23690
 30
0.000000
  70
    32
  0
VERTEX
  8
0
  5
556
 10
7.95273
 20
8.21880
 30
0.000000
  70
    32
  0
VERTEX
  8
0
  5
557
 10
7.98704
 20
8.20062
 30
0.000000
  70
    32
  0
VERTEX
  8
0
  5
558
 10
8.02130
 20
8.18235
 30
0.000000
  70
    32
  0
VERTEX
  8
0
  5
559
 10
8.05551
 20
8.16399
 30
0.000000
  70
    32
  0
VERTEX
  8
0
  5
55A
 10
8.08966
 20
8.14552
 30
0.000000
  70
    32
  0
VERTEX
  8
0
  5
55B
 10
8.12376
 20
8.12696
 30
0.000000
  70
    32
  0
VERTEX
  8
0
  5
55C
 10
8.15780
 20
8.10829
 30
0.000000
  70
    32
  0
VERTEX
  8
0
  5
55D
 10
8.19179
 20
8.08950
 30
0.000000
  70
    32
  0
VERTEX
  8
0
  5
55E
 10
8.22571
 20
8.07061
 30
0.000000
  70
    32
  0
VERTEX
  8
0
  5
55F
 10
8.25956
 20
8.05159
 30
0.000000
  70
    32
  0
VERTEX
  8
0
  5
560
 10
8.29336
 20
8.03245
 30
0.000000
  70
    32
  0
VERTEX
  8
0
  5
561
 10
8.32708
 20
8.01319
 30
0.000000
  70
    32
  0
VERTEX
  8
0
  5
562
 10
8.36073
 20
7.99380
 30
0.000000
  70
    32
  0
VERTEX
  8
0
  5
563
 10
8.39431
 20
7.97427
 30
0.000000
  70
    32
  0
VERTEX
  8
0
  5
564
 10
8.42782
 20
7.95461
 30
0.000000
  70
    32
  0
VERTEX
  8
0
  5
565
 10
8.46126
 20
7.93482
 30
0.000000
  70
    32
  0
VERTEX
  8
0
  5
566
 10
8.49462
 20
7.91490
 30
0.000000
  70
    32
  0
VERTEX
  8
0
  5
567
 10
8.52791
 20
7.89485
 30
0.000000
  70
    32
  0
VERTEX
  8
0
  5
568
 10
8.56112
 20
7.87467
 30
0.000000
  70
    32
  0
VERTEX
  8
0
  5
569
 10
8.59426
 20
7.85436
 30
0.000000
  70
    32
  0
VERTEX
  8
0
  5
56A
 10
8.62732
 20
7.83392
 30
0.000000
  70
    32
  0
VERTEX
  8
0
  5
56B
 10
8.66030
 20
7.81335
 30
0.000000
  70
    32
  0
VERTEX
  8
0
  5
56C
 10
8.69321
 20
7.79265
 30
0.000000
  70
    32
  0
VERTEX
  8
0
  5
56D
 10
8.72604
 20
7.77182
 30
0.000000
  70
    32
  0
VERTEX
  8
0
  5
56E
 10
8.75879
 20
7.75087
 30
0.000000
  70
    32
  0
VERTEX
  8
0
  5
56F
 10
8.79146
 20
7.72979
 30
0.000000
  70
    32
  0
VERTEX
  8
0
  5
570
 10
8.82405
 20
7.70858
 30
0.000000
  70
    32
  0
VERTEX
  8
0
  5
571
 10
8.85656
 20
7.68724
 30
0.000000
  70
    32
  0
VERTEX
  8
0
  5
572
 10
8.88899
 20
7.66578
 30
0.000000
  70
    32
  0
VERTEX
  8
0
  5
573
 10
8.92133
 20
7.64420
 30
0.000000
  70
    32
  0
VERTEX
  8
0
  5
574
 10
8.95360
 20
7.62248
 30
0.000000
  70
    32
  0
VERTEX
  8
0
  5
575
 10
8.98578
 20
7.60065
 30
0.000000
  70
    32
  0
VERTEX
  8
0
  5
576
 10
9.01787
 20
7.57869
 30
0.000000
  70
    32
  0
VERTEX
  8
0
  5
577
 10
9.04989
 20
7.55660
 30
0.000000
  70
    32
  0
VERTEX
  8
0
  5
578
 10
9.08181
 20
7.53440
 30
0.000000
  70
    32
  0
VERTEX
  8
0
  5
579
 10
9.11366
 20
7.51207
 30
0.000000
  70
    32
  0
VERTEX
  8
0
  5
57A
 10
9.14541
 20
7.48961
 30
0.000000
  70
    32
  0
VERTEX
  8
0
  5
57B
 10
9.17708
 20
7.46704
 30
0.000000
  70
    32
  0
VERTEX
  8
0
  5
57C
 10
9.20866
 20
7.44434
 30
0.000000
  70
    32
  0
VERTEX
  8
0
  5
57D
 10
9.24016
 20
7.42152
 30
0.000000
  70
    32
  0
VERTEX
  8
0
  5
57E
 10
9.27156
 20
7.39858
 30
0.000000
  70
    32
  0
VERTEX
  8
0
  5
57F
 10
9.30287
 20
7.37552
 30
0.000000
  70
    32
  0
VERTEX
  8
0
  5
580
 10
9.33410
 20
7.35235
 30
0.000000
  70
    32
  0
VERTEX
  8
0
  5
581
 10
9.36523
 20
7.32905
 30
0.000000
  70
    32
  0
VERTEX
  8
0
  5
582
 10
9.39628
 20
7.30563
 30
0.000000
  70
    32
  0
VERTEX
  8
0
  5
583
 10
9.42723
 20
7.28209
 30
0.000000
  70
    32
  0
VERTEX
  8
0
  5
584
 10
9.45809
 20
7.25844
 30
0.000000
  70
    32
  0
VERTEX
  8
0
  5
585
 10
9.48885
 20
7.23467
 30
0.000000
  70
    32
  0
VERTEX
  8
0
  5
586
 10
9.51952
 20
7.21078
 30
0.000000
  70
    32
  0
VERTEX
  8
0
  5
587
 10
9.55010
 20
7.18677
 30
0.000000
  70
    32
  0
VERTEX
  8
0
  5
588
 10
9.58058
 20
7.16265
 30
0.000000
  70
    32
  0
VERTEX
  8
0
  5
589
 10
9.61097
 20
7.13841
 30
0.000000
  70
    32
  0
VERTEX
  8
0
  5
58A
 10
9.64126
 20
7.11406
 30
0.000000
  70
    32
  0
VERTEX
  8
0
  5
58B
 10
9.67145
 20
7.08959
 30
0.000000
  70
    32
  0
VERTEX
  8
0
  5
58C
 10
9.70155
 20
7.06501
 30
0.000000
  70
    32
  0
VERTEX
  8
0
  5
58D
 10
9.73154
 20
7.04031
 30
0.000000
  70
    32
  0
VERTEX
  8
0
  5
58E
 10
9.76144
 20
7.01550
 30
0.000000
  70
    32
  0
VERTEX
  8
0
  5
58F
 10
9.79124
 20
6.99057
 30
0.000000
  70
    32
  0
VERTEX
  8
0
  5
590
 10
9.82094
 20
6.96554
 30
0.000000
  70
    32
  0
VERTEX
  8
0
  5
591
 10
9.85054
 20
6.94039
 30
0.000000
  70
    32
  0
VERTEX
  8
0
  5
592
 10
9.88005
 20
6.91513
 30
0.000000
  70
    32
  0
VERTEX
  8
0
  5
593
 10
9.90945
 20
6.88976
 30
0.000000
  70
    32
  0
VERTEX
  8
0
  5
594
 10
9.93876
 20
6.86428
 30
0.000000
  70
    32
  0
VERTEX
  8
0
  5
595
 10
9.96798
 20
6.83870
 30
0.000000
  70
    32
  0
VERTEX
  8
0
  5
596
 10
9.99710
 20
6.81301
 30
0.000000
  70
    32
  0
VERTEX
  8
0
  5
597
 10
10.0261
 20
6.78722
 30
0.000000
  70
    32
  0
VERTEX
  8
0
  5
598
 10
10.0551
 20
6.76132
 30
0.000000
  70
    32
  0
VERTEX
  8
0
  5
599
 10
10.0839
 20
6.73533
 30
0.000000
  70
    32
  0
VERTEX
  8
0
  5
59A
 10
10.1126
 20
6.70923
 30
0.000000
  70
    32
  0
VERTEX
  8
0
  5
59B
 10
10.1413
 20
6.68303
 30
0.000000
  70
    32
  0
VERTEX
  8
0
  5
59C
 10
10.1699
 20
6.65673
 30
0.000000
  70
    32
  0
VERTEX
  8
0
  5
59D
 10
10.1984
 20
6.63034
 30
0.000000
  70
    32
  0
VERTEX
  8
0
  5
59E
 10
10.2268
 20
6.60384
 30
0.000000
  70
    32
  0
VERTEX
  8
0
  5
59F
 10
10.2551
 20
6.57726
 30
0.000000
  70
    32
  0
VERTEX
  8
0
  5
5A0
 10
10.2833
 20
6.55058
 30
0.000000
  70
    32
  0
VERTEX
  8
0
  5
5A1
 10
10.3114
 20
6.52380
 30
0.000000
  70
    32
  0
VERTEX
  8
0
  5
5A2
 10
10.3395
 20
6.49694
 30
0.000000
  70
    32
  0
VERTEX
  8
0
  5
5A3
 10
10.3674
 20
6.46999
 30
0.000000
  70
    32
  0
VERTEX
  8
0
  5
5A4
 10
10.3953
 20
6.44294
 30
0.000000
  70
    32
  0
VERTEX
  8
0
  5
5A5
 10
10.4231
 20
6.41581
 30
0.000000
  70
    32
  0
VERTEX
  8
0
  5
5A6
 10
10.4508
 20
6.38859
 30
0.000000
  70
    32
  0
VERTEX
  8
0
  5
5A7
 10
10.4785
 20
6.36129
 30
0.000000
  70
    32
  0
VERTEX
  8
0
  5
5A8
 10
10.5060
 20
6.33390
 30
0.000000
  70
    32
  0
VERTEX
  8
0
  5
5A9
 10
10.5335
 20
6.30643
 30
0.000000
  70
    32
  0
VERTEX
  8
0
  5
5AA
 10
10.5609
 20
6.27887
 30
0.000000
  70
    32
  0
VERTEX
  8
0
  5
5AB
 10
10.5883
 20
6.25124
 30
0.000000
  70
    32
  0
VERTEX
  8
0
  5
5AC
 10
10.6155
 20
6.22352
 30
0.000000
  70
    32
  0
VERTEX
  8
0
  5
5AD
 10
10.6427
 20
6.19573
 30
0.000000
  70
    32
  0
VERTEX
  8
0
  5
5AE
 10
10.6698
 20
6.16786
 30
0.000000
  70
    32
  0
VERTEX
  8
0
  5
5AF
 10
10.6968
 20
6.13991
 30
0.000000
  70
    32
  0
VERTEX
  8
0
  5
5B0
 10
10.7238
 20
6.11189
 30
0.000000
  70
    32
  0
VERTEX
  8
0
  5
5B1
 10
10.7507
 20
6.08379
 30
0.000000
  70
    32
  0
VERTEX
  8
0
  5
5B2
 10
10.7775
 20
6.05562
 30
0.000000
  70
    32
  0
VERTEX
  8
0
  5
5B3
 10
10.8042
 20
6.02738
 30
0.000000
  70
    32
  0
VERTEX
  8
0
  5
5B4
 10
10.8309
 20
5.99907
 30
0.000000
  70
    32
  0
VERTEX
  8
0
  5
5B5
 10
10.8575
 20
5.97068
 30
0.000000
  70
    32
  0
VERTEX
  8
0
  5
5B6
 10
10.8840
 20
5.94223
 30
0.000000
  70
    32
  0
VERTEX
  8
0
  5
5B7
 10
10.9105
 20
5.91371
 30
0.000000
  70
    32
  0
VERTEX
  8
0
  5
5B8
 10
10.9368
 20
5.88510
 30
0.000000
  70
    32
  0
VERTEX
  8
0
  5
5B9
 10
10.9631
 20
5.85643
 30
0.000000
  70
    32
  0
VERTEX
  8
0
  5
5BA
 10
10.9893
 20
5.82767
 30
0.000000
  70
    32
  0
VERTEX
  8
0
  5
5BB
 10
11.0154
 20
5.79883
 30
0.000000
  70
    32
  0
VERTEX
  8
0
  5
5BC
 10
11.0415
 20
5.76990
 30
0.000000
  70
    32
  0
VERTEX
  8
0
  5
5BD
 10
11.0674
 20
5.74090
 30
0.000000
  70
    32
  0
VERTEX
  8
0
  5
5BE
 10
11.0932
 20
5.71180
 30
0.000000
  70
    32
  0
VERTEX
  8
0
  5
5BF
 10
11.1189
 20
5.68262
 30
0.000000
  70
    32
  0
VERTEX
  8
0
  5
5C0
 10
11.1445
 20
5.65334
 30
0.000000
  70
    32
  0
VERTEX
  8
0
  5
5C1
 10
11.1700
 20
5.62397
 30
0.000000
  70
    32
  0
VERTEX
  8
0
  5
5C2
 10
11.1954
 20
5.59450
 30
0.000000
  70
    32
  0
VERTEX
  8
0
  5
5C3
 10
11.2206
 20
5.56494
 30
0.000000
  70
    32
  0
VERTEX
  8
0
  5
5C4
 10
11.2457
 20
5.53528
 30
0.000000
  70
    32
  0
VERTEX
  8
0
  5
5C5
 10
11.2707
 20
5.50552
 30
0.000000
  70
    32
  0
VERTEX
  8
0
  5
5C6
 10
11.2956
 20
5.47565
 30
0.000000
  70
    32
  0
VERTEX
  8
0
  5
5C7
 10
11.3203
 20
5.44568
 30
0.000000
  70
    32
  0
VERTEX
  8
0
  5
5C8
 10
11.3449
 20
5.41560
 30
0.000000
  70
    32
  0
VERTEX
  8
0
  5
5C9
 10
11.3694
 20
5.38541
 30
0.000000
  70
    32
  0
VERTEX
  8
0
  5
5CA
 10
11.3937
 20
5.35511
 30
0.000000
  70
    32
  0
VERTEX
  8
0
  5
5CB
 10
11.4178
 20
5.32470
 30
0.000000
  70
    32
  0
VERTEX
  8
0
  5
5CC
 10
11.4418
 20
5.29417
 30
0.000000
  70
    32
  0
VERTEX
  8
0
  5
5CD
 10
11.4657
 20
5.26352
 30
0.000000
  70
    32
  0
VERTEX
  8
0
  5
5CE
 10
11.4893
 20
5.23276
 30
0.000000
  70
    32
  0
VERTEX
  8
0
  5
5CF
 10
11.5128
 20
5.20187
 30
0.000000
  70
    32
  0
VERTEX
  8
0
  5
5D0
 10
11.5362
 20
5.17086
 30
0.000000
  70
    32
  0
VERTEX
  8
0
  5
5D1
 10
11.5594
 20
5.13973
 30
0.000000
  70
    32
  0
VERTEX
  8
0
  5
5D2
 10
11.5824
 20
5.10847
 30
0.000000
  70
    32
  0
VERTEX
  8
0
  5
5D3
 10
11.6052
 20
5.07707
 30
0.000000
  70
    32
  0
VERTEX
  8
0
  5
5D4
 10
11.6278
 20
5.04555
 30
0.000000
  70
    32
  0
VERTEX
  8
0
  5
5D5
 10
11.6502
 20
5.01390
 30
0.000000
  70
    32
  0
VERTEX
  8
0
  5
5D6
 10
11.6725
 20
4.98210
 30
0.000000
  70
    32
  0
VERTEX
  8
0
  5
5D7
 10
11.6946
 20
4.95018
 30
0.000000
  70
    32
  0
VERTEX
  8
0
  5
5D8
 10
11.7164
 20
4.91812
 30
0.000000
  70
    32
  0
VERTEX
  8
0
  5
5D9
 10
11.7381
 20
4.88593
 30
0.000000
  70
    32
  0
VERTEX
  8
0
  5
5DA
 10
11.7596
 20
4.85362
 30
0.000000
  70
    32
  0
VERTEX
  8
0
  5
5DB
 10
11.7809
 20
4.82118
 30
0.000000
  70
    32
  0
VERTEX
  8
0
  5
5DC
 10
11.8021
 20
4.78862
 30
0.000000
  70
    32
  0
VERTEX
  8
0
  5
5DD
 10
11.8230
 20
4.75593
 30
0.000000
  70
    32
  0
VERTEX
  8
0
  5
5DE
 10
11.8438
 20
4.72314
 30
0.000000
  70
    32
  0
VERTEX
  8
0
  5
5DF
 10
11.8644
 20
4.69022
 30
0.000000
  70
    32
  0
VERTEX
  8
0
  5
5E0
 10
11.8849
 20
4.65720
 30
0.000000
  70
    32
  0
VERTEX
  8
0
  5
5E1
 10
11.9051
 20
4.62407
 30
0.000000
  70
    32
  0
VERTEX
  8
0
  5
5E2
 10
11.9252
 20
4.59082
 30
0.000000
  70
    32
  0
VERTEX
  8
0
  5
5E3
 10
11.9452
 20
4.55748
 30
0.000000
  70
    32
  0
VERTEX
  8
0
  5
5E4
 10
11.9650
 20
4.52403
 30
0.000000
  70
    32
  0
VERTEX
  8
0
  5
5E5
 10
11.9846
 20
4.49049
 30
0.000000
  70
    32
  0
VERTEX
  8
0
  5
5E6
 10
12.0041
 20
4.45684
 30
0.000000
  70
    32
  0
VERTEX
  8
0
  5
5E7
 10
12.0234
 20
4.42311
 30
0.000000
  70
    32
  0
VERTEX
  8
0
  5
5E8
 10
12.0426
 20
4.38928
 30
0.000000
  70
    32
  0
VERTEX
  8
0
  5
5E9
 10
12.0616
 20
4.35536
 30
0.000000
  70
    32
  0
VERTEX
  8
0
  5
5EA
 10
12.0804
 20
4.32136
 30
0.000000
  70
    32
  0
VERTEX
  8
0
  5
5EB
 10
12.0992
 20
4.28727
 30
0.000000
  70
    32
  0
VERTEX
  8
0
  5
5EC
 10
12.1177
 20
4.25310
 30
0.000000
  70
    32
  0
VERTEX
  8
0
  5
5ED
 10
12.1362
 20
4.21885
 30
0.000000
  70
    32
  0
VERTEX
  8
0
  5
5EE
 10
12.1545
 20
4.18452
 30
0.000000
  70
    32
  0
VERTEX
  8
0
  5
5EF
 10
12.1726
 20
4.15012
 30
0.000000
  70
    32
  0
VERTEX
  8
0
  5
5F0
 10
12.1907
 20
4.11565
 30
0.000000
  70
    32
  0
VERTEX
  8
0
  5
5F1
 10
12.2086
 20
4.08111
 30
0.000000
  70
    32
  0
VERTEX
  8
0
  5
5F2
 10
12.2264
 20
4.04651
 30
0.000000
  70
    32
  0
VERTEX
  8
0
  5
5F3
 10
12.2440
 20
4.01184
 30
0.000000
  70
    32
  0
VERTEX
  8
0
  5
5F4
 10
12.2615
 20
3.97711
 30
0.000000
  70
    32
  0
VERTEX
  8
0
  5
5F5
 10
12.2789
 20
3.94232
 30
0.000000
  70
    32
  0
VERTEX
  8
0
  5
5F6
 10
12.2962
 20
3.90747
 30
0.000000
  70
    32
  0
VERTEX
  8
0
  5
5F7
 10
12.3133
 20
3.87255
 30
0.000000
  70
    32
  0
VERTEX
  8
0
  5
5F8
 10
12.3303
 20
3.83757
 30
0.000000
  70
    32
  0
VERTEX
  8
0
  5
5F9
 10
12.3472
 20
3.80253
 30
0.000000
  70
    32
  0
VERTEX
  8
0
  5
5FA
 10
12.3639
 20
3.76742
 30
0.000000
  70
    32
  0
VERTEX
  8
0
  5
5FB
 10
12.3805
 20
3.73225
 30
0.000000
  70
    32
  0
VERTEX
  8
0
  5
5FC
 10
12.3969
 20
3.69701
 30
0.000000
  70
    32
  0
VERTEX
  8
0
  5
5FD
 10
12.4132
 20
3.66170
 30
0.000000
  70
    32
  0
VERTEX
  8
0
  5
5FE
 10
12.4293
 20
3.62633
 30
0.000000
  70
    32
  0
VERTEX
  8
0
  5
5FF
 10
12.4452
 20
3.59088
 30
0.000000
  70
    32
  0
VERTEX
  8
0
  5
600
 10
12.4610
 20
3.55537
 30
0.000000
  70
    32
  0
VERTEX
  8
0
  5
601
 10
12.4766
 20
3.51979
 30
0.000000
  70
    32
  0
VERTEX
  8
0
  5
602
 10
12.4921
 20
3.48413
 30
0.000000
  70
    32
  0
VERTEX
  8
0
  5
603
 10
12.5073
 20
3.44841
 30
0.000000
  70
    32
  0
VERTEX
  8
0
  5
604
 10
12.5224
 20
3.41261
 30
0.000000
  70
    32
  0
VERTEX
  8
0
  5
605
 10
12.5373
 20
3.37674
 30
0.000000
  70
    32
  0
VERTEX
  8
0
  5
606
 10
12.5520
 20
3.34079
 30
0.000000
  70
    32
  0
VERTEX
  8
0
  5
607
 10
12.5665
 20
3.30477
 30
0.000000
  70
    32
  0
VERTEX
  8
0
  5
608
 10
12.5808
 20
3.26867
 30
0.000000
  70
    32
  0
VERTEX
  8
0
  5
609
 10
12.5949
 20
3.23250
 30
0.000000
  70
    32
  0
VERTEX
  8
0
  5
60A
 10
12.6088
 20
3.19625
 30
0.000000
  70
    32
  0
VERTEX
  8
0
  5
60B
 10
12.6225
 20
3.15992
 30
0.000000
  70
    32
  0
VERTEX
  8
0
  5
60C
 10
12.6360
 20
3.12351
 30
0.000000
  70
    32
  0
VERTEX
  8
0
  5
60D
 10
12.6493
 20
3.08703
 30
0.000000
  70
    32
  0
VERTEX
  8
0
  5
60E
 10
12.6624
 20
3.05046
 30
0.000000
  70
    32
  0
VERTEX
  8
0
  5
60F
 10
12.6752
 20
3.01381
 30
0.000000
  70
    32
  0
VERTEX
  8
0
  5
610
 10
12.6878
 20
2.97708
 30
0.000000
  70
    32
  0
VERTEX
  8
0
  5
611
 10
12.7002
 20
2.94026
 30
0.000000
  70
    32
  0
VERTEX
  8
0
  5
612
 10
12.7124
 20
2.90337
 30
0.000000
  70
    32
  0
VERTEX
  8
0
  5
613
 10
12.7243
 20
2.86640
 30
0.000000
  70
    32
  0
VERTEX
  8
0
  5
614
 10
12.7361
 20
2.82936
 30
0.000000
  70
    32
  0
VERTEX
  8
0
  5
615
 10
12.7476
 20
2.79225
 30
0.000000
  70
    32
  0
VERTEX
  8
0
  5
616
 10
12.7588
 20
2.75506
 30
0.000000
  70
    32
  0
VERTEX
  8
0
  5
617
 10
12.7699
 20
2.71780
 30
0.000000
  70
    32
  0
VERTEX
  8
0
  5
618
 10
12.7807
 20
2.68048
 30
0.000000
  70
    32
  0
VERTEX
  8
0
  5
619
 10
12.7914
 20
2.64309
 30
0.000000
  70
    32
  0
VERTEX
  8
0
  5
61A
 10
12.8018
 20
2.60564
 30
0.000000
  70
    32
  0
VERTEX
  8
0
  5
61B
 10
12.8120
 20
2.56813
 30
0.000000
  70
    32
  0
VERTEX
  8
0
  5
61C
 10
12.8219
 20
2.53056
 30
0.000000
  70
    32
  0
VERTEX
  8
0
  5
61D
 10
12.8317
 20
2.49293
 30
0.000000
  70
    32
  0
VERTEX
  8
0
  5
61E
 10
12.8413
 20
2.45525
 30
0.000000
  70
    32
  0
VERTEX
  8
0
  5
61F
 10
12.8506
 20
2.41751
 30
0.000000
  70
    32
  0
VERTEX
  8
0
  5
620
 10
12.8598
 20
2.37972
 30
0.000000
  70
    32
  0
VERTEX
  8
0
  5
621
 10
12.8687
 20
2.34189
 30
0.000000
  70
    32
  0
VERTEX
  8
0
  5
622
 10
12.8775
 20
2.30401
 30
0.000000
  70
    32
  0
VERTEX
  8
0
  5
623
 10
12.8860
 20
2.26608
 30
0.000000
  70
    32
  0
VERTEX
  8
0
  5
624
 10
12.8943
 20
2.22811
 30
0.000000
  70
    32
  0
VERTEX
  8
0
  5
625
 10
12.9024
 20
2.19010
 30
0.000000
  70
    32
  0
VERTEX
  8
0
  5
626
 10
12.9104
 20
2.15206
 30
0.000000
  70
    32
  0
VERTEX
  8
0
  5
627
 10
12.9181
 20
2.11397
 30
0.000000
  70
    32
  0
VERTEX
  8
0
  5
628
 10
12.9256
 20
2.07585
 30
0.000000
  70
    32
  0
VERTEX
  8
0
  5
629
 10
12.9330
 20
2.03770
 30
0.000000
  70
    32
  0
VERTEX
  8
0
  5
62A
 10
12.9401
 20
1.99952
 30
0.000000
  70
    32
  0
VERTEX
  8
0
  5
62B
 10
12.9470
 20
1.96131
 30
0.000000
  70
    32
  0
VERTEX
  8
0
  5
62C
 10
12.9538
 20
1.92308
 30
0.000000
  70
    32
  0
VERTEX
  8
0
  5
62D
 10
12.9605
 20
1.88482
 30
0.000000
  70
    32
  0
VERTEX
  8
0
  5
62E
 10
12.9670
 20
1.84656
 30
0.000000
  70
    32
  0
VERTEX
  8
0
  5
62F
 10
12.9735
 20
1.80828
 30
0.000000
  70
    32
  0
VERTEX
  8
0
  5
630
 10
12.9800
 20
1.77000
 30
0.000000
  70
    32
  0
SEQEND
  8
0
  5
631
  0
LINE
  5
10E
  8
0
 10
-12.98
 20
1.77
 30
0.0
 11
-12.41622169881667
 21
1.6931211407477269
 31
0.0
  0
ARC
  5
10F
  8
0
 10
-11.449999999999999
 20
0.75
 30
0.0
 40
0.75
 50
180.0
 51
270.0
  0
ARC
  5
110
  8
0
 10
11.449999999999999
 20
0.75
 30
0.0
 40
0.75
 50
270.0
 51
0.0
  0
ARC
  5
111
  8
0
 10
-12.449999999999999
 20
1.4454135987366521
 30
0.0
 40
0.25
 50
0.0
 51
82.234833981574667
  0
LINE
  5
112
  8
0
 10
12.19999999999999
 20
0.75
 30
0.0
 11
12.19999999999999
 21
1.4454135987366521
 31
0.0
  0
ARC
  5
113
  8
0
 10
12.449999999999999
 20
1.4454135987366521
 30
0.0
 40
0.25
 50
97.765166018425347
 51
180.0
  0
LINE
  5
114
  8
0
 10
12.98
 20
1.77
 30
0.0
 11
12.41622169881667
 21
1.6931211407477269
 31
0.0
  0
LINE
  5
115
  8
0
 10
0.0
 20
-1.0
 30
0.0
 11
10.0
 21
-1.0
 31
0.0
1001
ACAD
1000
ASC_BOUNDS
1002
{
1070
    19
1005
15D
1005
15D
1005
15D
1005
15D
1005
15D
1002
}
  0
LINE
  5
117
  8
0
 10
0.0
 20
-0.875
 30
0.0
 11
10.0
 21
-0.875
 31
0.0
1001
ACAD
1000
ASC_BOUNDS
1002
{
1070
    19
1005
15D
1005
15D
1005
15D
1005
15D
1005
15D
1002
}
  0
LINE
  5
118
  8
0
 10
0.0
 20
-0.875
 30
0.0
 11
0.0
 21
-1.0
 31
0.0
  0
LINE
  5
119
  8
0
 10
10.0
 20
-0.875
 30
0.0
 11
10.0
 21
-1.0
 31
0.0
  0
LINE
  5
11A
  8
0
 10
1.0
 20
-0.875
 30
0.0
 11
1.0
 21
-1.0
 31
0.0
1001
ACAD
1000
ASC_BOUNDS
1002
{
1070
    19
1005
15D
1002
}
  0
LINE
  5
11B
  8
0
 10
2.0
 20
-0.875
 30
0.0
 11
2.0
 21
-1.0
 31
0.0
1001
ACAD
1000
ASC_BOUNDS
1002
{
1070
    19
1005
15D
1002
}
  0
LINE
  5
11C
  8
0
 10
3.0
 20
-0.875
 30
0.0
 11
3.0
 21
-1.0
 31
0.0
1001
ACAD
1000
ASC_BOUNDS
1002
{
1070
    19
1005
15D
1002
}
  0
LINE
  5
11D
  8
0
 10
4.0
 20
-0.875
 30
0.0
 11
4.0
 21
-1.0
 31
0.0
1001
ACAD
1000
ASC_BOUNDS
1002
{
1070
    19
1005
15D
1002
}
  0
LINE
  5
11E
  8
0
 10
5.0
 20
-0.875
 30
0.0
 11
5.0
 21
-1.0
 31
0.0
1001
ACAD
1000
ASC_BOUNDS
1002
{
1070
    19
1005
15D
1002
}
  0
LINE
  5
11F
  8
0
 10
6.0
 20
-0.875
 30
0.0
 11
6.0
 21
-1.0
 31
0.0
1001
ACAD
1000
ASC_BOUNDS
1002
{
1070
    19
1005
15D
1002
}
  0
LINE
  5
120
  8
0
 10
7.0
 20
-0.875
 30
0.0
 11
7.0
 21
-1.0
 31
0.0
1001
ACAD
1000
ASC_BOUNDS
1002
{
1070
    19
1005
15D
1002
}
  0
LINE
  5
121
  8
0
 10
8.0
 20
-0.875
 30
0.0
 11
8.0
 21
-1.0
 31
0.0
1001
ACAD
1000
ASC_BOUNDS
1002
{
1070
    19
1005
15D
1002
}
  0
LINE
  5
122
  8
0
 10
9.0
 20
-0.875
 30
0.0
 11
9.0
 21
-1.0
 31
0.0
1001
ACAD
1000
ASC_BOUNDS
1002
{
1070
    19
1005
15D
1002
}
  0
TEXT
  5
123
  8
0
 10
-0.0768076398362892
 20
-0.7862039563437926
 30
0.0
 40
0.2
  1
0
  0
TEXT
  5
126
  8
0
 10
0.9327421555252387
 20
-0.7879092769440657
 30
0.0
 40
0.2
  1
1
  0
TEXT
  5
127
  8
0
 10
1.9255798090040921
 20
-0.7879092769440657
 30
0.0
 40
0.2
  1
2
  0
TEXT
  5
128
  8
0
 10
2.9227830832196449
 20
-0.7861357435197818
 30
0.0
 40
0.2
  1
3
  0
TEXT
  5
129
  8
0
 10
3.9272851296043649
 20
-0.7875
 30
0.0
 40
0.2
  1
4
  0
TEXT
  5
12A
  8
0
 10
4.9221009549795358
 20
-0.7857946793997273
 30
0.0
 40
0.2
  1
5
  0
TEXT
  5
12B
  8
0
 10
5.923465211459753
 20
-0.7862039563437926
 30
0.0
 40
0.2
  1
6
  0
TEXT
  5
12C
  8
0
 10
6.9220327421555252
 20
-0.7875
 30
0.0
 40
0.2
  1
7
  0
TEXT
  5
12D
  8
0
 10
7.9227830832196453
 20
-0.7862039563437926
 30
0.0
 40
0.2
  1
8
  0
TEXT
  5
12E
  8
0
 10
8.9226466575716223
 20
-0.7862039563437926
 30
0.0
 40
0.2
  1
9
  0
TEXT
  5
12F
  8
0
 10
9.8360845839017745
 20
-0.7862039563437926
 30
0.0
 40
0.2
  1
10
  0
TEXT
  5
130
  8
0
 10
-1.142937522764033
 20
-0.7858628922237381
 30
0.0
 40
0.2
  1
inches
  0
LINE
  5
147
  8
0
 10
0.5
 20
-0.875
 30
0.0
 11
0.5
 21
-1.0
 31
0.0
1001
ACAD
1000
ASC_BOUNDS
1002
{
1070
    19
1005
15D
1002
}
  0
INSERT
  5
15D
  8
0
  6
CONTINUOUS
  2
*X3
 10
0.0
 20
0.0
 30
0.0
1001
ACAD
1000
HATCH
1002
{
1070
    19
1000
ANSI31
1040
0.1
1040
0.0
1000
ASC_BOUNDS
1070
     5
1070
     1
1070
     4
1005
122
1005
115
1005
121
1005
117
1070
     1
1070
     4
1005
120
1005
115
1005
11F
1005
117
1070
     1
1070
     4
1005
11E
1005
115
1005
11D
1005
117
1070
     1
1070
     4
1005
11C
1005
115
1005
11B
1005
117
1070
     1
1070
     4
1005
11A
1005
115
1005
147
1005
117
1000
ASC_SEEDPOINT
1011
0.8089735658409153
1021
-2.6197125225195166E+297
1031
-6.7064640701239645E+299
1021
-0.9486892388190248
1031
0.0
1000
R14_HATCH_DATA
1000
15D
1011
1.0
1021
-2.6197125225195166E+297
1031
-6.7064640701239645E+299
1021
0.0
1031
0.0
1011
0.0
1021
-2.6197125225195166E+297
1031
-6.7064640701239645E+299
1021
1.0
1031
0.0
1011
0.0
1021
-2.6197125225195166E+297
1031
-6.7064640701239645E+299
1021
0.0
1031
1.0
1040
0.0
1010
0.0
1020
0.0
1030
1.0
1000
ANSI31
1070
     0
1070
     1
1071
        5
1071
        7
1070
     0
1070
     1
1071
        4
1040
1.0
1040
-0.875
1040
0.5
1040
-0.875
1040
0.5
1040
-1.0
1040
1.0
1040
-1.0
1071
        4
1005
117
1005
147
1005
115
1005
11A
1071
        7
1070
     0
1070
     1
1071
        4
1040
3.0
1040
-0.875
1040
2.0
1040
-0.875
1040
2.0
1040
-1.0
1040
3.0
1040
-1.0
1071
        4
1005
117
1005
11B
1005
115
1005
11C
1071
        7
1070
     0
1070
     1
1071
        4
1040
5.0
1040
-0.875
1040
4.0
1040
-0.875
1040
4.0
1040
-1.0
1040
5.0
1040
-1.0
1071
        4
1005
117
1005
11D
1005
115
1005
11E
1071
        7
1070
     0
1070
     1
1071
        4
1040
7.0
1040
-0.875
1040
6.0
1040
-0.875
1040
6.0
1040
-1.0
1040
7.0
1040
-1.0
1071
        4
1005
117
1005
11F
1005
115
1005
120
1071
        7
1070
     0
1070
     1
1071
        4
1040
9.0
1040
-0.875
1040
8.0
1040
-0.875
1040
8.0
1040
-1.0
1040
9.0
1040
-1.0
1071
        4
1005
117
1005
121
1005
115
1005
122
1070
     0
1070
     1
1040
0.0
1040
0.1
1070
     0
1070
     1
1040
0.7853981633974483
1040
0.0
1040
0.0
1040
-0.0088388347648318
1040
0.0088388347648318
1070
     0
1040
0.0099726375881555
1071
        5
1040
0.8089735658409153
1040
-0.9486892388190248
1040
0.0
1040
2.554835650963184
1040
-0.9387165970995425
1040
0.0
1040
4.3505794702450302
1040
-0.9387165970995425
1040
0.0
1040
6.4057085387461816
1040
-0.9187713346153429
1040
0.0
1040
8.58055383539876
1040
-0.9287439763348218
1040
0.0
1002
}
  0
TEXT
  5
15E
  8
0
 10
-3.3240491311707192
 20
10.915282271458709
 30
0.0
 40
0.3125
  1
RV-4 INSTRUMENT PANEL LAYOUT
  0
CIRCLE
  5
18A
  8
0
 10
-2.8705499049258298
 20
5.8529756534417876
 30
0.0000000006782557
 40
1.5800000000000001
  0
ARC
  5
18B
  8
0
 10
-2.8976352034957769
 20
3.0594541430384878
 30
0.0000000000000029
 40
0.45
 50
338.21321070173809
 51
322.24596938272708
  0
CIRCLE
  5
18C
  8
0
 10
-4.1079867720022882
 20
4.615538786365323
 30
0.0000000006782699
 40
0.078
  0
CIRCLE
  5
18D
  8
0
 10
-4.1079867720022882
 20
7.0904125205182487
 30
0.0000000006782415
 40
0.078
  0
ARC
  5
18E
  8
0
 10
0.6294500950741693
 20
5.8529756534417876
 30
0.0000000006782557
 40
1.5800000000000001
 50
247.3420097313288
 51
202.65799026723511
  0
CIRCLE
  5
18F
  8
0
 10
3.6905127796769999
 20
5.779677762609194
 30
0.0000000006782557
 40
1.15625
  0
LINE
  5
190
  8
0
 10
-2.5609679422434262
 20
2.9393099580229149
 30
0.0000000000000029
 11
-2.6234679422434262
 21
2.8310567825498612
 31
0.0000000000000029
  0
LINE
  5
191
  8
0
 10
-2.5609679422434222
 20
2.9393099580229141
 30
0.0000000000000029
 11
-2.4797780606386359
 21
2.8924349580229172
 31
0.0000000000000029
  0
LINE
  5
192
  8
0
 10
-2.6234679422434222
 20
2.8310567825498612
 30
0.0000000000000029
 11
-2.54184427678286
 21
2.7839313373239589
 31
0.0000000000000029
  0
ARC
  5
193
  8
0
 10
-0.6866524014092903
 20
4.8621422792429376
 30
0.0000000006782557
 40
0.3125
 50
135.0000000000004
 51
225.00000000000031
  0
LINE
  5
194
  8
0
 10
-0.9076232706400872
 20
4.6411714102189077
 30
0.0000000006782557
 11
-0.5823541488363304
 21
4.3159022881107951
 31
0.0000000006782557
  0
CIRCLE
  5
195
  8
0
 10
-1.633113037849373
 20
4.6155387863653301
 30
0.0000000006782415
 40
0.078
  0
ARC
  5
196
  8
0
 10
-0.3613832796187673
 20
4.536873157121593
 30
0.0000000006782557
 40
0.3125
 50
224.99999978833199
 51
314.99999999999949
  0
LINE
  5
197
  8
0
 10
-0.0816190862518909
 20
4.3746956143378339
 30
0.0000000006782557
 11
-0.1404265888457736
 21
4.315888110562673
 31
0.0000000006782557
  0
ARC
  5
198
  8
0
 10
-0.0153278244490842
 20
4.3084043546681619
 30
0.0000000006782557
 40
0.09375
 50
67.342009731329298
 51
135.0000009218374
  0
LINE
  5
199
  8
0
 10
-0.8488299443532625
 20
5.141906471847121
 30
0.0000000006782557
 11
-0.9076393607812036
 21
5.0830970569409031
 31
0.0000000006782557
  0
ARC
  5
19A
  8
0
 10
-0.9151212037156142
 20
5.2081977339572436
 30
0.0000000006782557
 40
0.09375
 50
314.99999881254718
 51
22.657990267235611
  0
CIRCLE
  5
19B
  8
0
 10
1.866886962150623
 20
4.6155387863653301
 30
0.0000000006782415
 40
0.078
  0
CIRCLE
  5
19C
  8
0
 10
2.762435129369663
 20
4.8516001123018428
 30
0.0000000006782415
 40
0.078
  0
CIRCLE
  5
19D
  8
0
 10
4.6185904299843719
 20
4.8516001123018793
 30
0.0000000006782415
 40
0.078
  0
CIRCLE
  5
19E
  8
0
 10
-0.6079867720022883
 20
7.0904125205182487
 30
0.0000000006782415
 40
0.078
  0
CIRCLE
  5
19F
  8
0
 10
-1.6331130378493659
 20
7.0904125205182353
 30
0.0000000006782557
 40
0.078
  0
CIRCLE
  5
1A0
  8
0
 10
2.7624351293696772
 20
6.7077554129165806
 30
0.0000000006782557
 40
0.078
  0
CIRCLE
  5
1A1
  8
0
 10
4.6185904299843576
 20
6.7077554129165309
 30
0.0000000006782486
 40
0.078
  0
CIRCLE
  5
1A2
  8
0
 10
1.866886962150637
 20
7.0904125205182353
 30
0.0000000006782557
 40
0.078
  0
ENDSEC
  0
EOF
